PrimaNota.ru - самый крупный в мире бесплатный архив песенных текстов, аккордов, табулатур и нот


At The Gates - The Break of Autumn - текст песни, таба, видео

Регистрация Запомнить меня
Войти через:  Facebook Google Twitter Vk Yandex Mail.ru

At The Gates - The Break of Autumn - текст песни, таба, видео

Печатать
Просмотров: 136
===============================================================================
===============================================================================


                      AT THE GATES - THE BREAK OF AUTUMN

                 WITH FEAR I KISS THE BURNING DARKNESS (1993)


===============================================================================
===============================================================================


                        Donald A. Morrison (Malakian88)

                             atwa@hotmail.co.uk




        Note durations:


                w - whole note
                h - half note
                q - quarter note
                e - eighth note
                s - sixteenth note

                x. - note of length 1.5 x
                x.. - note of length 1.75 x

                +x - tied note of length x

                < 3 > - triplet grouping

                (Capital letters indicate rests.)




        Tab symbols:


                . - palm mute
                // - tremolo picking
                ~ - vibrato
                / - slide up
                \ - slide down
                h - hammer-on
                p - pull-off
                [ ] - harmonic




        Guitar 1: B E A D F# B

                Heavily distorted; panned fully to right

        Guitar 2: B E A D F# B

                Heavily distorted; panned fully to left

        Guitar 3: B E A D F# B

                Heavily distorted; centred

        Guitar 4: B E A D F# B

                Acoustic; centred

        Guitar 5: B E A D F# B

                Acoustic; centred






  Guitar 1; Guitar 2

    ~ 210 b.p.m.

    6/8

      C#5

      e e e  Q.       Q.    q   e     Q.    e e e     H.
B  |---------------|---------------|---------------|---------------|
F# |---------------|---------------|---------------|---------------|
D  |---------------|---------------|---------------|---------------|
A  |---------------|---------------|---------------|---------------|
E  |--4-4-4--------|--------4---4--|--------4-4-4--|---------------|
B  |--2-2-2--------|--------2---2--|--------2-2-2--|---------------|
   |                                                               |
   |                                                               |
   |  e e e  Q.       Q.    q   e     Q.    e e e     H.           |
B  |---------------|---------------|---------------|---------------|
F# |---------------|---------------|---------------|---------------|
D  |---------------|---------------|---------------|---------------|
A  |---------------|---------------|---------------|---------------|
E  |--4-4-4--------|--------4---4--|--------4-4-4--|---------------|
B  |--2-2-2--------|--------2---2--|--------2-2-2--|---------------|




      e e e e e e     e e e e e e     q.    e e e     e e e e e e
B  |---------------|---------------|---------------|---------------|
F# |---------------|---------------|---------------|---------------|
D  |---------------|--4------------|--7------------|--4------------|
A  |--------2-4-5--|----5-4--------|---------------|----5-4-2-4-5--|
E  |--4-4-4--------|---------------|---------------|---------------|
B  |--2-2-2--------|--------2-2-2--|--------2-2-2--|---------------|
   |        . . .     . . . . . .           . . .     . . . . . .  |
   |                                                               |
   |  e e e  Q.       Q.    q   e     Q.    e e e     H.           |
B  |---------------|---------------|---------------|---------------|
F# |---------------|---------------|---------------|---------------|
D  |---------------|---------------|---------------|---------------|
A  |---------------|---------------|---------------|---------------|
E  |--4-4-4--------|--------4---4--|--------4-4-4--|---------------|
B  |--2-2-2--------|--------2---2--|--------2-2-2--|---------------|




      N.C.

      e e e  e e e     e e e  e e e     q.     e e e     e e e e e e
B  |----------------|----------------|----------------|---------------|
F# |----------------|----------------|----------------|---------------|
D  |----------------|--4-------------|--7-------------|--4------------|
A  |---------2-4-5--|----5-4---------|----------------|----5-4-2-4-5--|
E  |----------------|----------------|----------------|---------------|
B  |--2-2-2---------|---------2-2-2--|---------2-2-2--|---------------|
   |  . . .  . . .     . . .  . . .            . . .     . . . . . .  |
   |                                                                  |
   |  e  s s e  q.     q.  e  s s e     q.  e  s s e     q.   q.      |
B  |----------------|----------------|----------------|---------------|
F# |----------------|----------------|----------------|---------------|
D  |----------------|----------------|----------------|---------------|
A  |------------4---|--5-------------|--5-------------|--4----[5]~----|
E  |----------------|----------------|----------------|---------------|
B  |--2--2-2-2------|------2--2-2-2--|------2--2-2-2--|---------------|
      .  . . .             .  . . .         .  . . .
                                               Pinch harmonic  *

   | < R1                                                        R1 > |



      C#5

      e e e e e e     e e e e e e     q.    e e e     e e e e e e
B  |---------------|---------------|---------------|---------------|
F# |---------------|---------------|---------------|---------------|
D  |---------------|--4------------|--7------------|--4------------|
A  |--------2-4-5--|----5-4--------|---------------|----5-4-2-4-5--|
E  |---------------|---------------|---------------|---------------|
B  |--2-2-2--------|--------2-2-2--|--------2-2-2--|---------------|
   |  . . . . . .     . . . . . .           . . .     . . . . . .  |
   |                                                               |
   |  e e e  Q.       Q.    q   e     Q.    e e e     H.           |
B  |---------------|---------------|---------------|---------------|
F# |---------------|---------------|---------------|---------------|
D  |---------------|---------------|---------------|---------------|
A  |---------------|---------------|---------------|---------------|
E  |--4-4-4--------|--------4---4--|--------4-4-4--|---------------|
B  |--2-2-2--------|--------2---2--|--------2-2-2--|---------------|




      N.C.

      e e e  e e e     e e e  e e e     q.    e e e      e e e e e e
B  |----------------|----------------|----------------|---------------|
F# |----------------|----------------|----------------|---------------|
D  |----------------|--7-------------|--10------------|--7------------|
A  |---------5-7-8--|----8-7---------|----------------|----8-7-5-7-8--|
E  |--0-0-0---------|---------0-0-0--|---------0-0-0--|---------------|
B  |----------------|----------------|----------------|---------------|
   |  . . .  . . .     . . .  . . .            . . .     . . . . . .  |
   |                                                                  |
   |  e  s s e  q.     q.  e  s s e     q.  e  s s e     q.    q.     |
B  |----------------|----------------|----------------|---------------|
F# |----------------|----------------|----------------|---------------|
D  |----------------|----------------|----------------|---------------|
A  |------------7---|--8-------------|--8-------------|--7-----8------|
E  |--0--0-0-0------|------0--0-0-0--|------0--0-0-0--|---------------|
B  |----------------|----------------|----------------|---------------|
      .  . . .             .  . . .         .  . . .

   | < R1a                                                      R1a > |



      e e e  e e e     e e e  e e e     q.    e e e      e e e e e e
B  |----------------|----------------|----------------|---------------|
F# |----------------|----------------|----------------|---------------|
D  |----------------|--7-------------|--10------------|--7------------|
A  |---------5-7-8--|----8-7---------|----------------|----8-7-5-7-8--|
E  |--0-0-0---------|---------0-0-0--|---------0-0-0--|---------------|
B  |----------------|----------------|----------------|---------------|
   |  . . .  . . .     . . .  . . .            . . .     . . . . . .  |
   |                                                                  |
   |  e  s s e  q.     q.  e  s s e     q.  e  s s e     q.    q.     |
B  |----------------|----------------|----------------|---------------|
F# |----------------|----------------|----------------|---------------|
D  |----------------|----------------|----------------|---------------|
A  |------------7---|--8-------------|--8-------------|--7-----8\-----|
E  |--0--0-0-0------|------0--0-0-0--|------0--0-0-0--|---------------|
B  |----------------|----------------|----------------|---------------|
      .  . . .             .  . . .         .  . . .









    9/8 8/8

     h.                 +q.         w
B  |-----------------------------|---------------------------|
F# |-----------------------------|---------------------------|
D  |-----------------------------|---------------------------|
A  |-----------------------------|---------------------------|
E  |-----------------------------|--5//----------------------|
B  |--0//------------------------|---------------------------|
   |                                                         |
   |                                                         |
   |  e  e  e  e  e  e  e  e  e     e  e  e  e  e  e  e   e  |
B  |-----------------------------|---------------------------|
F# |-----------------------------|---------------------------|
D  |-----------------------------|---------------------------|
A  |-----------------------------|---------------------------|
E  |--7--------8--------7--------|--7--------8--------10--8--|
B  |-----0--0-----0--0-----0--0--|-----0--0-----0--0---------|
         .  .     .  .     .  .        .  .     .  .

   | < R2


                                  10/8

      h.                +q.         w                         Q
B  |-----------------------------|------------------------------------|
F# |-----------------------------|------------------------------------|
D  |-----------------------------|------------------------------------|
A  |-----------------------------|------------------------------------|
E  |-----------------------------|------------------------------------|
B  |--0//------------------------|--6//-------------------------------|
   |                                                                  |
   |                                                                  |
   |  e  e  e  e  e  e  e  e  e     e  e  e  e  e  e  e   e   Q       |
B  |-----------------------------|------------------------------------|
F# |-----------------------------|------------------------------------|
D  |-----------------------------|------------------------------------|
A  |-----------------------------|------------------------------------|
E  |--7--------8--------7--------|--7--------8--------10--8-----------|
B  |-----0--0-----0--0-----0--0--|-----0--0-----0--0------------------|
         .  .     .  .     .  .        .  .     .  .

                                                                 R2 > |





    9/8 8/8

     h.            +q.        w
B  |-----------------------|--------------------------|
F# |-----------------------|--------------------------|
D  |-----------------------|--------------------------|
A  |-----------------------|--------------------------|
E  |--5//------------------|--5//---------------------|
B  |-----------------------|--------------------------|
   |                                                  |
   |                                                  |
   | q.      q.     q.        q.     q.     e    e    |
B  |-----------------------|--------------------------|
F# |-----------------------|--------------------------|
D  |-----------------------|--------------------------|
A  |-----------------------|--------------------------|
E  |--7//----8//----7//----|--7//----8//----10//-8//--|
B  |-----------------------|--------------------------|




     h.            +q.        w
B  |-----------------------|--------------------------|
F# |-----------------------|--------------------------|
D  |-----------------------|--------------------------|
A  |-----------------------|--------------------------|
E  |-----------------------|--------------------------|
B  |--6//------------------|--4//---------------------|
   |                                                  |
   |                                                  |
   | q.      q.     q.        q.     q.     e    e    |
B  |-----------------------|--------------------------|
F# |-----------------------|--------------------------|
D  |-----------------------|--------------------------|
A  |-----------------------|--------------------------|
E  |--7//----8//----7//----|--7//----8//----10//-8//--|
B  |-----------------------|--------------------------|




  Guitars 1 and 2

      6/4 5/4

        q    q    q    q    q    q       q    q    q    q    q
B  ||---------------------------------|----------------------------||
F# ||---------------------------------|----------------------------||
D  ||o--------------------------------|---------------------------o||
A  ||o--------------------------------|---------------------------o||
E  ||-----------------------4//--3//--|-----------------6//--------||
B  ||---0//--6//--3//--0//------------|--0//--6//--3//-------3//---||








        - R1 twice (On second repeat, Guitar 2 plays normal note in place of
         pinch harmonic.)




        - R1a once




        - R2 once (with quarter rest at end of final measure omitted)







  Guitar 1; Guitar 2

    9/8 8/8

     h.            +q.        +w
B  |-----------------------|--------------------------|
F# |-----------------------|--------------------------|
D  |-----------------------|--------------------------|
A  |-----------------------|--------------------------|
E  |--5--------------------|--(5)---------------------|
B  |-----------------------|--------------------------|
   |                                                  |
   |                                                  |
   | q.      q.     q.        q.     q.     e    e    |
B  |-----------------------|--------------------------|
F# |-----------------------|--------------------------|
D  |-----------------------|--------------------------|
A  |-----------------------|--------------------------|
E  |--7//----8//----7//----|--7//----8//----10//-8//--|
B  |-----------------------|--------------------------|

   | < R2a



                            9/8

     F5                       Eb5

     h.            +q.        h.     +q.
B  |-----------------------|------------------------------|
F# |-----------------------|------------------------------|
D  |-----------------------|------------------------------|
A  |-----------------------|------------------------------|
E  |--8--------------------|--6---------------------------|
B  |--6--------------------|--4---------------------------|
   |                                                      |
   |                                                      |
   | q.      q.     q.        q.     q.     e    e   e    |
B  |-----------------------|------------------------------|
F# |-----------------------|------------------------------|
D  |-----------------------|------------------------------|
A  |-----------------------|------------------------------|
E  |--7//----8//----7//----|--7//----8//----10//-8//-7//--|
B  |-----------------------|------------------------------|

                                                    R2a > |







      4/4

        N.C.

        h.                   e   e       q      q      q      q
B  ||---------------------------------|--------------------------------|
F# ||---------------------------------|--------------------------------|
D  ||o--9//------------------7//-9//--|--9//-----------9//-------------|
A  ||o--------------------------------|--------------------------------|
E  ||---------------------------------|---------7//-----------7//------|
B  ||---------------------------------|--------------------------------|
   |                                                                   |
   |                                                                   |
   |    q      q      h                  q      q      q      q        |
B  ||---------------------------------|--------------------------------|
F# ||---------------------------------|--------------------------------|
D  ||o--------------------------------|---------7//----9//-------------|
A  ||o--9//----7//----9//-------------|--10//-----------------10//-----|
E  ||---------------------------------|--------------------------------|
B  ||---------------------------------|--------------------------------|

      | < R3



      h.                   e   e       q      q      q      q         4x
B  |--------------------------------|---------------------------------||
F# |--------------------------------|---------------------------------||
D  |--9//------------------7//-9//--|--12//----------12//------------o||
A  |--------------------------------|--------------------------------o||
E  |--------------------------------|---------10//----------10//------||
B  |--------------------------------|---------------------------------||
   |                                                                   |
   |                                                                   |
   |                                          < 3  >                   |
   |  q      q      h                  q      e e  e q      q          |
B  |--------------------------------|---------------------------------||
F# |--------------------------------|---------------------------------||
D  |--------------------------------|--------------------------------o||
A  |--9//----7//----9//-------------|--10-----9h10p9-7------10-------o||
E  |--------------------------------|---------------------------------||
B  |--------------------------------|---------------------------------||

                                                               R3 > |







    6/4 4/4

      q     q     q     q     q     q         q     q     q     q
B  |---------------------------------------|---------------------------|
F# |--------------------7//----------------|--------7//----------------|
D  |--------------7//----------------------|--7//---------------7//----|
A  |--------9//---------------------9//----|--------------9//----------|
E  |--7//---------------------7//----------|---------------------------|
B  |---------------------------------------|---------------------------|
   |                                                                   |
   |                                                                   |
   |  w.                                      w                        |
B  |---------------------------------------|---------------------------|
F# |---------------------------------------|---------------------------|
D  |---------------------------------------|---------------------------|
A  |---------------------------------------|---------------------------|
E  |--7//----------------------------------|--5//----------------------|
B  |---------------------------------------|---------------------------|

   | < R4



                                              E5

      q     q     q     q     q     q         q     q     q     q
B  |---------------------------------------|---------------------------|
F# |---------------------------------------|---------------------------|
D  |--------------------9//----------------|--------9//----------------|
A  |--------7//---10//--------------7//----|--10//--------7//---10//---|
E  |--7//---------------------7//----------|---------------------------|
B  |---------------------------------------|---------------------------|
   |                                                                   |
   |                                                                   |
   |  w.                                      q     q     q     q      |
B  |---------------------------------------|---------------------------|
F# |---------------------------------------|---------------------------|
D  |---------------------------------------|---------------------------|
A  |---------------------------------------|---------------------------|
E  |---------------------------------------|--7-----7-----7-----7------|
B  |--8//----------------------------------|--5-----5-----5-----5------|
                                              .     .     .



      N.C.

      q     q     q     q     q     q         q     q     q     q
B  |---------------------------------------|---------------------------|
F# |--------------------7//----------------|--------7//----------------|
D  |--------------7//----------------------|--7//---------------7//----|
A  |--------9//---------------------9//----|--------------9//----------|
E  |--7//---------------------7//----------|---------------------------|
B  |---------------------------------------|---------------------------|
   |                                                                   |
   |                                                                   |
   |  w.                                      w                        |
B  |---------------------------------------|---------------------------|
F# |---------------------------------------|---------------------------|
D  |---------------------------------------|---------------------------|
A  |---------------------------------------|---------------------------|
E  |--7//----------------------------------|--5//----------------------|
B  |---------------------------------------|---------------------------|




      q     q     q     q     q     q         q     q     q     q
B  |---------------------------------------|---------------------------|
F# |---------------------------------------|---------------------------|
D  |--------------------9//----------------|--------9//----------------|
A  |--------7//---10//--------------7//----|--10//--------7//---10//---|
E  |--7//---------------------7//----------|---------------------------|
B  |---------------------------------------|---------------------------|
   |                                                                   |
   |                                                                   |
   |  w.                                      q     q     q     q      |
B  |---------------------------------------|---------------------------|
F# |---------------------------------------|---------------------------|
D  |---------------------------------------|---------------------------|
A  |---------------------------------------|---------------------------|
E  |---------------------------------------|---------------------------|
B  |--8//----------------------------------|--5//---5-----5//---5------|




  Guitar 1; Guitar 2; Guitar 3

      q     q     q     q     q     q         q     q     q     q
B  |---------------------------------------|---------------------------|
F# |--------------------7//----------------|--------7//----------------|
D  |--------------7//----------------------|--7//---------------7//----|
A  |--------9//---------------------9//----|--------------9//----------|
E  |--7//---------------------7//----------|---------------------------|
B  |---------------------------------------|---------------------------|
   |                                                                   |
   |                                                                   |
   |  w.                                      w                        |
B  |---------------------------------------|---------------------------|
F# |---------------------------------------|---------------------------|
D  |---------------------------------------|---------------------------|
A  |---------------------------------------|---------------------------|
E  |--7//----------------------------------|--5//----------------------|
B  |---------------------------------------|---------------------------|
   |                                                                   |
   |                                                                   |
   |  W.                                      h           h            |
B  |---------------------------------------|---------------------------|
F# |---------------------------------------|---------------------------|
D  |---------------------------------------|--11-----------------------|
A  |---------------------------------------|--------------12-----------|
E  |---------------------------------------|---9-----------------------|
B  |---------------------------------------|--------------10-----------|




      q     q     q     q     q     q         q     q     q     q
B  |---------------------------------------|---------------------------|
F# |---------------------------------------|---------------------------|
D  |--------------------9//----------------|--------9//----------------|
A  |--------7//---10//--------------7//----|--10//--------7//---10//---|
E  |--7//---------------------7//----------|---------------------------|
B  |---------------------------------------|---------------------------|
   |                                                                   |
   |                                                                   |
   |  w.                                      q     q     q     q      |
B  |---------------------------------------|---------------------------|
F# |---------------------------------------|---------------------------|
D  |---------------------------------------|---------------------------|
A  |---------------------------------------|---------------------------|
E  |---------------------------------------|---------------------------|
B  |--8//----------------------------------|--5//---5-----5//---5------|
   |                                                                   |
   |                                                                   |
   |  w.                                      +w                       |
B  |---------------------------------------|---------------------------|
F# |---------------------------------------|---------------------------|
D  |---------------------------------------|---------------------------|
A  |--10-----------------------------------|-(10)----------------------|
E  |---------------------------------------|---------------------------|
B  |---8-----------------------------------|--(8)----------------------|

                                                                  R4 > |








  Guitar 1; Guitar 2

    6/8

      h.                h.                h.                h.
B  |-----------------|-----------------|-----------------|-----------------|
F# |-----------------|-----------------|-----------------|-----------------|
D  |-----------------|-----------------|-----------------|-----------------|
A  |--5//------------|--6//------------|--8//------------|--8//------------|
E  |-----------------|-----------------|-----------------|-----------------|
B  |-----------------|-----------------|-----------------|-----------------|
   |                                                                       |
   |                                                                       |
   |  h.                +h.               +h.               +h.            |
B  |-----------------|-----------------|-----------------|-----------------|
F# |-----------------|-----------------|-----------------|-----------------|
D  |-----------------|-----------------|-----------------|-----------------|
A  |--5--------------|--(5)------------|--(5)------------|--(5)------------|
E  |-----------------|-----------------|-----------------|-----------------|
B  |-----------------|-----------------|-----------------|-----------------|




      h.                h.                h.                q.     q.
B  |-----------------|-----------------|-----------------|-----------------|
F# |-----------------|-----------------|-----------------|-----------------|
D  |-----------------|-----------------|-----------------|-----------------|
A  |-----------------|-----------------|-----------------|--6//----6\------|
E  |--5//------------|--6//------------|--8//------------|-----------------|
B  |-----------------|-----------------|-----------------|-----------------|
   |                                                                       |
   |                                                                       |
   |  h.                +h.               +h.                h.            |
B  |-----------------|-----------------|-----------------|-----------------|
F# |-----------------|-----------------|-----------------|-----------------|
D  |-----------------|-----------------|-----------------|-----------------|
A  |-----------------|-----------------|-----------------|-----------------|
E  |--5--------------|--(5)------------|--(5)------------|--/13\-----------|
B  |-----------------|-----------------|-----------------|-----------------|




      h.                h.                h.                h.
B  |-----------------|-----------------|-----------------|-----------------|
F# |-----------------|-----------------|-----------------|-----------------|
D  |-----------------|-----------------|-----------------|-----------------|
A  |--5//------------|--6//------------|--8//------------|--8//------------|
E  |-----------------|-----------------|-----------------|-----------------|
B  |-----------------|-----------------|-----------------|-----------------|
   |                                                                       |
   |                                                                       |
   |  h.                h.                h.                q.     q.      |
B  |-----------------|-----------------|-----------------|-----------------|
F# |-----------------|-----------------|-----------------|-----------------|
D  |-----------------|-----------------|-----------------|-----------------|
A  |--5//------------|--5//------------|--5//------------|--5//----5~------|
E  |-----------------|-----------------|-----------------|-----------------|
B  |-----------------|-----------------|-----------------|-----------------|




      h.                h.                h.                q.     q.
B  |-----------------|-----------------|-----------------|-----------------|
F# |-----------------|-----------------|-----------------|-----------------|
D  |-----------------|-----------------|-----------------|-----------------|
A  |-----------------|-----------------|-----------------|--6//----6\------|
E  |--5//------------|--6//------------|--8//------------|-----------------|
B  |-----------------|-----------------|-----------------|-----------------|
   |                                                                       |
   |                                                                       |
   |  h.                h.                h.                q.     q.      |
B  |-----------------|-----------------|-----------------|-----------------|
F# |-----------------|-----------------|-----------------|-----------------|
D  |-----------------|-----------------|-----------------|-----------------|
A  |-----------------|-----------------|-----------------|-----------------|
E  |--5//------------|--5//------------|--5//------------|--5//------------|
B  |-----------------|-----------------|-----------------|---------4//-----|




      h.                h.                h.                h.
B  |-----------------|-----------------|-----------------|-----------------|
F# |-----------------|-----------------|-----------------|-----------------|
D  |-----------------|-----------------|-----------------|-----------------|
A  |--5//------------|--6//------------|--8//------------|--8//------------|
E  |-----------------|-----------------|-----------------|-----------------|
B  |-----------------|-----------------|-----------------|-----------------|
   |                                                                       |
   |                                                                       |
   |  h.                q.     q.         h.                q.     q.      |
B  |-----------------|-----------------|-----------------|-----------------|
F# |-----------------|-----------------|-----------------|-----------------|
D  |-----------------|-----------------|-----------------|-----------------|
A  |-----------------|-----------------|-----------------|-----------------|
E  |-----------------|---------5//-----|-----------------|-----------------|
B  |--3//------------|--3//------------|--6//------------|--6//----4//-----|




      h.                h.                h.                q.     q.
B  |-----------------|-----------------|-----------------|-----------------|
F# |-----------------|-----------------|-----------------|-----------------|
D  |-----------------|-----------------|-----------------|-----------------|
A  |-----------------|-----------------|-----------------|--6//----6\------|
E  |--5//------------|--6//------------|--8//------------|-----------------|
B  |-----------------|-----------------|-----------------|-----------------|
   |                                                                       |
   |                                                                       |
   |  h.                q.     q.          h.               e  e  e  q.    |
B  |-----------------|-----------------|-----------------|-----------------|
F# |-----------------|-----------------|-----------------|-----------------|
D  |-----------------|-----------------|-----------------|-----------------|
A  |-----------------|-----------------|-----------------|-----------------|
E  |-----------------|---------6//-----|--5//------------|-----------------|
B  |--6//------------|--6//------------|-----------------|--4--4--4--4-----|
                                                            .  .  .



      q.     q.         q.     q.         q.     q.         q.     q.
B  |-----------------|-----------------|-----------------|-----------------|
F# |-----------------|-----------------|-----------------|-----------------|
D  |-----------------|-----------------|-----------------|-----------------|
A  |---------5//-----|---------6//-----|---------8//-----|---------8//-----|
E  |-----------------|-----------------|-----------------|-----------------|
B  |--3//------------|--4//------------|--6//------------|--6//------------|
   |                                                                       |
   |                                                                       |
   |  h.                +q.    q.         h.                 q.    q.      |
B  |-----------------|-----------------|-----------------|-----------------|
F# |-----------------|-----------------|-----------------|-----------------|
D  |-----------------|---------7-------|-----------------|-----------------|
A  |--5--------------|--(5)------------|--8--------------|--(8)----6-------|
E  |-----------------|---------5-------|-----------------|-----------------|
B  |--3--------------|--(3)------------|--6--------------|--(6)----4-------|




      q.     q.         h.                h.                q.     q.
B  |-----------------|-----------------|-----------------|-----------------|
F# |-----------------|-----------------|-----------------|-----------------|
D  |---------7//-----|-----------------|-----------------|-----------------|
A  |-----------------|-----------------|-----------------|--6//----6\------|
E  |--5//------------|--6//------------|--8//------------|-----------------|
B  |-----------------|-----------------|-----------------|-----------------|
   |                                                                       |
   |                                                                       |
   |  h.                q.     q.         h.                e  e  e  q.    |
B  |-----------------|-----------------|-----------------|-----------------|
F# |-----------------|-----------------|-----------------|-----------------|
D  |-----------------|---------8-------|--7--------------|-----------------|
A  |--8--------------|--(8)------------|-----------------|-----------------|
E  |-----------------|---------6-------|--5--------------|-----------------|
B  |--6--------------|--(6)------------|-----------------|--4--4--4--4-----|
                                                            .  .  .







    6/4

      q    q    q    q    q    q       q    q    q    q    h
B  |--------------------------------|---------------------------------|
F# |--------------------------------|---------------------------------|
D  |--------------------------------|-----------------6//-------------|
A  |-------8//--8---------6//--5----|-------8//--8---------4----------|
E  |--4--------------8//------------|--4------------------------------|
B  |--------------------------------|---------------------------------|
   |                                                                  |
   |                                                                  |
   |  w.                               w                   +q.    e   |
B  |--------------------------------|---------------------------------|
F# |--------------------------------|---------------------------------|
D  |--------------------------------|---------------------------------|
A  |--8-----------------------------|--8--------------------------8---|
E  |--------------------------------|---------------------------------|
B  |--6-----------------------------|--6--------------------------6---|




      q    q    q    q    q    q       q    q    q    q    q    q
B  |--------------------------------|---------------------------------|
F# |--------------------------------|---------------------------------|
D  |--------------------------------|-----------------6//-------------|
A  |-------8//--8---------6//--5----|-------8//--8---------4----(4)/--|
E  |--4--------------8//------------|--4------------------------------|
B  |--------------------------------|---------------------------------|
   |                                                                  |
   |                                                                  |
   |   w.                               w                  +q   q     |
B  |--------------------------------|---------------------------------|
F# |--------------------------------|---------------------------------|
D  |--------------------------------|---------------------------------|
A  |--10----------------------------|--10-----------------------------|
E  |--------------------------------|---------------------------------|
B  |---8----------------------------|---8-----------------------8\----|






    9/8

      q    e   q      e  e   e   e       q    e   e   e  e   e   e   e
B  |----------------------------------|----------------------------------|
F# |-----------11---------------------|-----------11---------------------|
D  |--0----10---------0--10--10-------|--0----10------0--13--12--13------|
A  |-----------------------------11---|------------------------------11--|
E  |----------------------------------|----------------------------------|
B  |----------------------------------|----------------------------------|
   |                                                                     |
   |                                                                     |
   |  h.                  e   e   e      h.                  e   e   e   |
B  |----------------------------------|----------------------------------|
F# |----------------------------------|----------------------------------|
D  |----------------------------------|----------------------------------|
A  |----------------------------------|----------------------------------|
E  |----------------------------------|--------------------------4-------|
B  |--3//-----------------3---3---3---|--3//-----------------3-------3---|
                          .   .   .                          .   .   .



      q    e   q      e  e   e   e       q    e   e   e  e   e   e   e
B  |----------------------------------|----------------------------------|
F# |-----------11---------------------|-----------11---------------------|
D  |--0----10---------0--10--10-------|--0----10------0--13--12--13------|
A  |-----------------------------11---|------------------------------11--|
E  |----------------------------------|----------------------------------|
B  |----------------------------------|----------------------------------|
   |                                                                     |
   |                                                                     |
   |  h.                  e   e   e      h.                  e   e   e   |
B  |----------------------------------|----------------------------------|
F# |----------------------------------|----------------------------------|
D  |----------------------------------|----------------------------------|
A  |--------------------------5//-----|--------------------------5//-----|
E  |--4//-----------------4//-----4//-|--4//-----------------4//-----4//-|
B  |----------------------------------|----------------------------------|









    6/4 5/4

      q    q    q    q    q    q       q    q    q    q    q
B  |--------------------------------|---------------------------|
F# |--------------------------------|---------------------------|
D  |--------------------------------|---------------------------|
A  |----------------------5//--4//--|-----------------7//-------|
E  |-------7//--4//-----------------|-------7//--4//-------4//--|
B  |--0//------------0//------------|--0//----------------------|
   |                                                            |
   |                                                            |
   |  q    q    q    q    q    q       q    q    q    q    q    |
B  |--------------------------------|---------------------------|
F# |--------------------------------|---------------------------|
D  |--------------------------------|---------------------------|
A  |----------------------5//--4//--|-----------------7//-------|
E  |-------7//--4//-----------------|-------7//--4//-------4//--|
B  |--0//------------0//------------|--0//----------------------|



                                     4/4

      q    q    q    q    q    q       q    q    q    q
B  |--------------------------------|----------------------|
F# |--------------------------------|----------------------|
D  |--------------------------------|----------------------|
A  |----------------------5//--4//--|-----------------7\---|
E  |-------7//--4//-----------------|-------7----4---------|
B  |--0//------------0//------------|--0-------------------|
   |                                   .                   |
   |                                                       |
   |  q    q    q    q    q    q       q    q    q    q    |
B  |--------------------------------|----------------------|
F# |--------------------------------|----------------------|
D  |--------------------------------|----------------------|
A  |----------------------5//--4//--|-----------------7\---|
E  |-------7//--4//-----------------|-------7//--4//-------|
B  |--0//------------0//------------|--0//-----------------|





      q     q     q     q          q     q     q     q
B  |----------------------------|----------------------------|
F# |----------------------------|----------------------------|
D  |----------------------------|----------------------------|
A  |----------------------------|----------------------------|
E  |--4//---------4//---5//-----|--4//---------4//---5//-----|
B  |--------2//-----------------|--------2//-----------------|
   |                                                         |
   |                                                         |
   |  q     q     q     q          q     q     q     q       |
B  |----------------------------|----------------------------|
F# |----------------------------|----------------------------|
D  |----------------------------|----------------------------|
A  |----------------------------|----------------------------|
E  |--4//---------4//---5//-----|--4//---------4//---5//-----|
B  |--------2//-----------------|--------2//-----------------|

   | < R5



      q     q     q     q          q     q     q     q
B  |----------------------------|----------------------------|
F# |----------------------------|----------------------------|
D  |----------------------------|----------------------------|
A  |----------------------------|----------------------------|
E  |--5//---------5//---6//-----|--5//---------5//---6//-----|
B  |--------3//-----------------|--------3//-----------------|
   |                                                         |
   |                                                         |
   |  q     q     q     q          q     q     q     q       |
B  |----------------------------|----------------------------|
F# |----------------------------|----------------------------|
D  |----------------------------|----------------------------|
A  |----------------------------|----------------------------|
E  |--5//---------5//---6//-----|--5//---------5//---6//-----|
B  |--------3//-----------------|--------3//-----------------|




      q     q     q     q          q     q     q     q
B  |----------------------------|----------------------------|
F# |----------------------------|----------------------------|
D  |----------------------------|----------------------------|
A  |--------------------7//-----|--------------------7//-----|
E  |--9//---------9//-----------|--9//---------9//-----------|
B  |--------8//-----------------|--------8//-----------------|
   |                                                         |
   |                                                         |
   |  q     q     q     q          q     q     q     q       |
B  |----------------------------|----------------------------|
F# |----------------------------|----------------------------|
D  |----------------------------|----------------------------|
A  |--------------------7//-----|--------------------7//-----|
E  |--9//---------9//-----------|--9//---------9//-----------|
B  |--------8//-----------------|--------8//-----------------|




      w                            w
B  |----------------------------|----------------------------|
F# |----------------------------|----------------------------|
D  |----------------------------|----------------------------|
A  |--/11~----------------------|--4//-----------------------|
E  |----------------------------|----------------------------|
B  |----------------------------|----------------------------|
   |                                                         |
   |                                                         |
   |  h           h                q     q     q     q       |
B  |----------------------------|----------------------------|
F# |----------------------------|----------------------------|
D  |----------------------------|----------------------------|
A  |--6~------------------------|----------------------------|
E  |--------------7\------------|--4//---------4//---5//-----|
B  |----------------------------|--------2//-----------------|




      w                            w
B  |----------------------------|----------------------------|
F# |----------------------------|----------------------------|
D  |----------------------------|----------------------------|
A  |--4//-----------------------|--5//-----------------------|
E  |----------------------------|----------------------------|
B  |----------------------------|----------------------------|
   |                                                         |
   |                                                         |
   |  q     q     q     q          q     q     q     q       |
B  |----------------------------|----------------------------|
F# |----------------------------|----------------------------|
D  |----------------------------|----------------------------|
A  |----------------------------|----------------------------|
E  |--4//---------4//---5//-----|--5//---------5//---6//-----|
B  |--------2//-----------------|--------3//-----------------|




      w                            q     h           q
B  |----------------------------|----------------------------|
F# |----------------------------|----------------------------|
D  |----------------------------|--------5//---------7//-----|
A  |--5//-----------------------|--4//-----------------------|
E  |----------------------------|----------------------------|
B  |----------------------------|----------------------------|
   |                                                         |
   |                                                         |
   |  q     q     q     q          q     q     q     q       |
B  |----------------------------|----------------------------|
F# |----------------------------|----------------------------|
D  |----------------------------|----------------------------|
A  |----------------------------|--------------------7//-----|
E  |--5//---------5//---6//-----|--9//---------9//-----------|
B  |--------3//-----------------|--------8//-----------------|




      w                            q     q     h
B  |----------------------------|----------------------------|
F# |----------------------------|----------------------------|
D  |--5//-----------------------|--6//---7//---4\------------|
A  |----------------------------|----------------------------|
E  |----------------------------|----------------------------|
B  |----------------------------|----------------------------|
   |                                                         |
   |                                                         |
   |  q     q     q     q          h           h             |
B  |----------------------------|----------------------------|
F# |----------------------------|----------------------------|
D  |----------------------------|----------------------------|
A  |--------------------7//-----|--6~------------------------|
E  |--9//---------9//-----------|--------------7\------------|
B  |--------8//-----------------|----------------------------|

                                                        R5 > |






        - R1 twice (Guitar 1 omits all palm muting except on low C#s; on both
        repeats, Guitar 2 plays normal note in place of pinch harmonic.)




        - R1a once (Guitar 1 omits all palm muting except on low Es.)




        - R2 once (Quarter rest at end of final measure is omitted.)




        - R2a once (Last eighth beat in final measure is omitted.)




        - R3 three times




        - R4 once





  Guitar 1; Guitar 2

    4/4

        w                            h.                q
B  ||-----------------------------|----------------------------|
F# ||-----------------------------|----------------------------|
D  ||o----------------------------|--------------------7//-----|
A  ||o--7//-----------------------|--9//-----------------------|
E  ||-----------------------------|----------------------------|
B  ||-----------------------------|----------------------------|
   |                                                           |
   |                                                           |
   |    h           h                q     h.                  |
B  ||-----------------------------|----------------------------|
F# ||-----------------------------|----------------------------|
D  ||o--------------9//-----------|--10//----------------------|
A  ||o--10//----------------------|--------9//-----------------|
E  ||-----------------------------|----------------------------|
B  ||-----------------------------|----------------------------|

      | < R6




      h           h                w
B  |----------------------------|-----------------------------||
F# |----------------------------|-----------------------------||
D  |----------------------------|----------------------------o||
A  |--10//--------7//-----------|----------------------------o||
E  |----------------------------|--8//------------------------||
B  |----------------------------|-----------------------------||
   |                                                           |
   |                                                           |
   |  h           h                q     h.                    |
B  |----------------------------|-----------------------------||
F# |----------------------------|-----------------------------||
D  |--------------9//-----------|--10//----------------------o||
A  |--10//----------------------|--------9//-----------------o||
E  |----------------------------|-----------------------------||
B  |----------------------------|-----------------------------||

                                                       R6 > |




        q     q     q     q          q     e   e   h
B  ||-----------------------------|-----------------------------||
F# ||-----------------------------|-----------------------------||
D  ||o----------------------------|----------------------------o||
A  ||o----------------------------|----------------------------o||
E  ||---7-------------------------|--5-----7//-8//-7//----------||
B  ||---------0-----7-----8-------|-----------------------------||
   |                                                             |
   |                                                             |
   |    h           h                q     h.                    |
B  ||-----------------------------|-----------------------------||
F# ||-----------------------------|-----------------------------||
D  ||o--------------9//-----------|--10//----------------------o||
A  ||o--10//----------------------|--------9//-----------------o||
E  ||-----------------------------|-----------------------------||
B  ||-----------------------------|-----------------------------||




    5/4

     B5

     e  e  e  e  e  e  e  Q.               e  e  e  e  e  e  e  Q.
B  |------------------------------------|------------------------------------|
F# |------------------------------------|------------------------------------|
D  |------------------------------------|------------------------------------|
A  |------------------------------------|------------------------------------|
E  |-2--2--------2-----2----------------|-2--2--------2-----2----------------|
B  |-0--0--0--0--0--0--0----------------|-0--0--0--0--0--0--0----------------|
   |       .  .     .                           .  .     .                   |
   |                                                                         |
   | q      e   e    h.                   q      e   e    h.                 |
B  |------------------------------------|------------------------------------|
F# |------------------------------------|------------------------------------|
D  |--------9//-10//--------------------|--------9//-10//--------------------|
A  |-10//------------9//----------------|-10//------------9//----------------|
E  |------------------------------------|------------------------------------|
B  |------------------------------------|------------------------------------|




     e  e  E  e  e  E  e  Q.              e  e  E  e  e  E  e  Q.        
B  |------------------------------------|------------------------------------|
F# |------------------------------------|------------------------------------|
D  |------------------------------------|------------------------------------|
A  |------------------------------------|------------------------------------|
E  |-2--2-----2--2-----2----------------|-2--2-----2--2-----2----------------|
B  |-0--0-----0--0-----0----------------|-0--0-----0--0-----0----------------|
   |                                                                         |
   |                                                                         |
   | q      e   e    q     q     q        e  e  E  e  e  E  e  Q.            |
B  |------------------------------------|------------------------------------|
F# |------------------------------------|------------------------------------|
D  |--------9//-10//--------------------|------------------------------------|
A  |-10//------------9//---7//---7\-----|------------------------------------|
E  |------------------------------------|-2--2-----2--2-----2----------------|
B  |------------------------------------|-0--0-----0--0-----0----------------|








  Guitar 4; Guitar 5 (Let ring all notes on Guitars 4 and 5.)

    4/4

     N.C.

     w                            +h           q     q
B  |----------------------------|----------------------------|
F# |----------------------------|----------------------------|
D  |----------------------------|----------------------------|
A  |-4--------------------------|-(4)----------4-----4-------|
E  |----------------------------|----------------------------|
B  |----------------------------|----------------------------|
   |                                                         |
   |                                                         |
   |  q     q     q     q          q     q     q     q       |
B  |----------------------------|----------------------------|
F# |----------------------------|----------------------------|
D  |----------------------------|----------------------------|
A  |--------------------0-------|--------------------0-------|
E  |--4-----------4-------------|--4-----------4-------------|
B  |--------2-------------------|--------2-------------------|




      w                            e  e  e  e  q     q
B  |----------------------------|----------------------------|
F# |----------------------------|----------------------------|
D  |----------------------------|----------------------------|
A  |--5-------------------------|--5--4-----4--5-----7-------|
E  |----------------------------|--------7-------------------|
B  |----------------------------|----------------------------|
   |                                                         |
   |                                                         |
   |  q     q     q     q          q     q     q     e  E    |
B  |----------------------------|----------------------------|
F# |----------------------------|----------------------------|
D  |----------------------------|----------------------------|
A  |--------------------7-------|--------------------7-------|
E  |--5-----------5-------------|--5-----------5-------------|
B  |--------3-------------------|--------3-------------------|




      h           h                h           h
B  |----------------------------|----------------------------|
F# |----------------------------|----------------------------|
D  |--4-----------5-------------|--4-----------5-------------|
A  |----------------------------|----------------------------|
E  |----------------------------|----------------------------|
B  |----------------------------|----------------------------|
   |                                                         |
   |                                                         |
   |  q     q     q     q          q     q     q     q       |
B  |----------------------------|----------------------------|
F# |----------------------------|----------------------------|
D  |----------------------------|----------------------------|
A  |--------------7-------------|--------------7-------------|
E  |--------9-----------9-------|--------9-----------9-------|
B  |--8-------------------------|--8-------------------------|




      w                           +w
B  |----------------------------|----------------------------|
F# |----------------------------|----------------------------|
D  |----------------------------|----------------------------|
A  |--3-------------------------|-(3)------------------------|
E  |----------------------------|----------------------------|
B  |----------------------------|----------------------------|
   |                                                         |
   |                                                         |
   |  q     q     q     q          q     q     q     q       |
B  |----------------------------|----------------------------|
F# |----------------------------|----------------------------|
D  |--------------0-------------|--------------0-------------|
A  |----------------------------|----------------------------|
E  |--------3-----------3-------|--------3-----------3-------|
B  |--1-------------------------|--1-------------------------|




  Guitar 3; Guitar 5

      w                           +h           q     e   e
B  |----------------------------|----------------------------|
F# |----------------------------|----------------------------|
D  |--6-------------------------|-(6)----------6-----6---6---|
A  |----------------------------|----------------------------|
E  |----------------------------|----------------------------|
B  |----------------------------|----------------------------|
   |                                           .     .   .   |
   |                                                         |
   |  q     q     q     q          q     q     q     q       |
B  |----------------------------|----------------------------|
F# |----------------------------|----------------------------|
D  |----------------------------|----------------------------|
A  |--------------------0-------|--------------------0-------|
E  |--4-----------4-------------|--4-----------4-------------|
B  |--------2-------------------|--------2-------------------|




      w                            e  e  e  e  h
B  |----------------------------|----------------------------|
F# |----------------------------|----------------------------|
D  |--7-------------------------|--9--7--6--7--6-------------|
A  |----------------------------|----------------------------|
E  |----------------------------|----------------------------|
B  |----------------------------|----------------------------|
   |                                     .  .                |
   |                                                         |
   |  q     q     q     q          q     q     q     e  E    |
B  |----------------------------|----------------------------|
F# |----------------------------|----------------------------|
D  |----------------------------|----------------------------|
A  |--------------------7-------|--------------------7-------|
E  |--5-----------5-------------|--5-----------5-------------|
B  |--------3-------------------|--------3-------------------|




      h                            h           h
B  |----------------------------|----------------------------|
F# |----------------------------|----------------------------|
D  |-/11------------------------|--12----------11\-----------|
A  |----------------------------|----------------------------|
E  |----------------------------|----------------------------|
B  |----------------------------|----------------------------|
   |                                                         |
   |                                                         |
   |  q     q     q     q          q     q     q     q       |
B  |----------------------------|----------------------------|
F# |----------------------------|----------------------------|
D  |----------------------------|----------------------------|
A  |--------------7-------------|--------------7-------------|
E  |--------9-----------9-------|--------9-----------9-------|
B  |--8-------------------------|--8-------------------------|




  Guitar 3; Guitar 5; Guitar 1; Guitar 2

      w                           +w
B  |----------------------------|----------------------------|
F# |----------------------------|----------------------------|
D  |--5-------------------------|-(5)------------------------|
A  |----------------------------|----------------------------|
E  |----------------------------|----------------------------|
B  |----------------------------|----------------------------|
   |                                                         |
   |                                                         |
   |  q     q     q     q          q     q     q     q       |
B  |----------------------------|----------------------------|
F# |----------------------------|----------------------------|
D  |--------------0-------------|--------------0-------------|
A  |----------------------------|----------------------------|
E  |--------3-----------3-------|--------3-----------3-------|
B  |--1-------------------------|--1-------------------------|
   |                                                         |
   |                                                         |
   |  W                            H           h             |
B  |----------------------------|----------------------------|
F# |----------------------------|----------------------------|
D  |----------------------------|--------------12\-----------|
A  |----------------------------|----------------------------|
E  |----------------------------|----------------------------|
B  |----------------------------|----------------------------|
   |                                                         |
   |                                                         |
   |  W                            H           h             |
B  |----------------------------|----------------------------|
F# |----------------------------|----------------------------|
D  |----------------------------|----------------------------|
A  |----------------------------|----------------------------|
E  |----------------------------|----------------------------|
B  |----------------------------|--------------12\-----------|







        - R5 once (Guitar 1 tremolo picks G# in seventh measure and also
        tremolo picks final note without sliding out.)




        - R3 twice




        - R6 three times






  Guitar 1; Guitar 2

    5/4

     B5

     e  e  e  e  e  e  e  Q.              e  e  e  e  e  e  e  Q.
B  |------------------------------------|------------------------------------|
F# |------------------------------------|------------------------------------|
D  |------------------------------------|------------------------------------|
A  |------------------------------------|------------------------------------|
E  |-------------------2----------------|-2--2--------2-----2----------------|
B  |-0--0--0--0--0--0--0----------------|-0--0--0--0--0--0--0----------------|
   | .  .  .  .  .  .                           .  .     .                   |
   |                                                                         |
   | q      e   e    h.                   q      e   e    q     q     e   E  |
B  |------------------------------------|------------------------------------|
F# |------------------------------------|------------------------------------|
D  |--------9//-10//--------------------|--------9//-10//--------------------|
A  |-10//------------9//----------------|-10//------------9//---7//---7------|
E  |------------------------------------|------------------------------------|
B  |------------------------------------|------------------------------------|




     e  e  e  e  e  e  e  Q.
B  |------------------------------------||
F# |------------------------------------||
D  |------------------------------------||
A  |------------------------------------||
E  |-2--2--------2-----2----------------||
B  |-0--0--0--0--0--0--0----------------||
   |       .  .     .                    |
   |                                     |
   | e  e  e  e  e  e  e  Q.             |
B  |------------------------------------||
F# |------------------------------------||
D  |------------------------------------||
A  |------------------------------------||
E  |-2--2--------2-----2----------------||
B  |-0--0--0--0--0--0--0----------------||
           .  .     .





===============================================================================
===============================================================================
Добавлено: 03.08.2013
Другие материалы по этой песне:

Страница создана 14.05.2012
http://primanota.ru/at-the-gates/the-break-of-autumn-chords.htm
Привет, Гость.
Предлагаем пройти революционный курс по гитаре.
Подарок от PrimaNota.Ru, забирай!