PrimaNota.ru - самый крупный в мире бесплатный архив песенных текстов, аккордов, табулатур и нот


At The Gates - Slaughter Of The Soul (album) - таба, видео

Регистрация Запомнить меня
Войти через:  Facebook Google Twitter Vk Yandex Mail.ru

At The Gates - Slaughter Of The Soul (album) - таба, видео

Печатать
Просмотров: 146
                                   AT THE GATES                                
                              SLAUGHTER OF THE SOUL
                                      1995

VERSION 1.0

This is one of the greatest Death Metal albums ever made.
So, I put together the entire album: Slaughter Of The Soul 

Track Listings

01) BLINDED BY FEAR...........3:12
02) SLAUGHTER OF THE SOUL.....3:03
03) COLD......................3:27
04) UNDER A SERPENT SUN.......3:59
05) INTO THE DEAD SKY.........2:12  INCOMPLETE
06) SUICIDE NATION............3:36
07) WORLD OF LIES.............3:35
08) UNTO OTHERS...............3:11
09) NAUSEA....................2:23
10) NEED......................2:36
11) THE FLAMES OF THE END.....2:56  INCOMPLETE


******************************************************************************
------------------------------------------------------------------------------
01) BLINDED BY FEAR
-------------------
                                  BLINDED BY FEAR
                           As recorded by At The Gates
                   (From the 1995 Album SLAUGHTER OF THE SOUL)

Words and Music by At the Gates
Arranged by powertab - Carlos Acosta (geeko19)
Transcribed by Anders Bjorler (official tab) dahaunted@hotmail.com

Gtr I (B E A D F# B) - 'Untitled'
Gtr II (B E A D F# B) - 'Untitled'
Gtr III (B E A D F# B) - 'Untitled'
Gtr IV (B E A D F# B) - 'Untitled'

 Intro
  Moderate Metal Q=125
                                        C5B5 G5F#5
 4/4
  Gtrs I, II
  W          W          W          H    S E. S E.
|----------|----------|----------|----------------|
|----------|----------|----------|----------------|
|----------|----------|----------|----------------|
|----------|----------|----------|------5-4-------|
|----------|----------|----------|------3-2--5-4--|
|----------|----------|----------|-----------3-2--|


  N.C.                        N.C.
   E S S S S  E E S S S S E    E S S S S E  E S S S S S S
|---------------------------|-----------------------------|
|---------------------------|-----------------------------|
|---------------------------|-----------------------------|
|---------------------------|-----------------------------|
|-10---------10-9---------9-|-12---------9-10-------------|
|----0-0-0-0------0-0-0-0---|----8-8-8-8------7-7-7-7-7-7-|


  N.C.                        N.C.
   E S S S S  E E S S S S E    E S S S S E  E S S S S S S
|---------------------------|------------------------------|
|---------------------------|------------------------------|
|---------------------------|------------------------------|
|---------------------------|------------------------------|
|-10---------10-9---------9-|-12---------9-10--------------|
|----0-0-0-0------0-0-0-0---|----8-8-8-8------7-7-7-7-7-7--|


  N.C.                        N.C.
   E S S S S  E E S S S S E    E S S S S E  E S S S S S S
|---------------------------|-----------------------------|
|---------------------------|-----------------------------|
|---------------------------|-----------------------------|
|---------------------------|-----------------------------|
|-10---------10-9---------9-|-12---------9-10-------------|
|----0-0-0-0------0-0-0-0---|----8-8-8-8------7-7-7-7-7-7-|


  N.C.                        N.C.
   E S S S S  E E S S S S E    E S S S S E  E S S S S S S
|---------------------------|------------------------------|
|---------------------------|------------------------------|
|---------------------------|------------------------------|
|---------------------------|------------------------------|
|-10---------10-9---------9-|-12---------9-10--------------|
|----0-0-0-0------0-0-0-0---|----8-8-8-8------7-7-7-7-7-7--|


  E5  E5  E5  E5                    E5  E5  E5  E5        E5E5D#5/Bb
  PM------------|                   PM------------|         PM
                  |-3-|   |-3-|                     |-3-|
  S S S S S S S S S S S E S S S E   S S S S S S S S S S S E E E
|---------------------------------|-----------------------------|
|---------------------------------|-----------------------------|
|---------------------------------|-----------------------------|
|-2---2---2---2-----------------1-|-2---2---2---2---------2---1-|
|-2---2---2---2---------2---------|-2---2---2---2---------2-2-1-|
|-0-0-0-0-0-0-0-0-0h2h3---0h2h3---|-0-0-0-0-0-0-0-0-0h2h3---0---|


  E5  E5  E5  E5                    E5  E5  E5  E5        E5E5D#5/Bb
  PM------------|                   PM------------|         PM
                  |-3-|   |-3-|                     |-3-|
  S S S S S S S S S S S E S S S E   S S S S S S S S S S S E E E
|---------------------------------|-----------------------------|
|---------------------------------|-----------------------------|
|---------------------------------|-----------------------------|
|-2---2---2---2-----------------1-|-2---2---2---2---------2---1-|
|-2---2---2---2---------2---------|-2---2---2---2---------2-2-1-|
|-0-0-0-0-0-0-0-0-0h2h3---0h2h3---|-0-0-0-0-0-0-0-0-0h2h3---0---|


 Verse
  N.C.                        N.C.
   E S S S S  E E S S S S E    E S S S S E  E S S S S S S
|---------------------------|-----------------------------|
|---------------------------|-----------------------------|
|---------------------------|-----------------------------|
|---------------------------|-----------------------------|
|-10---------10-9---------9-|-12---------9-10-------------|
|----0-0-0-0------0-0-0-0---|----8-8-8-8------7-7-7-7-7-7-|


  N.C.                        N.C.
   E S S S S  E E S S S S E    E S S S S E  E S S S S S S
|---------------------------|------------------------------|
|---------------------------|------------------------------|
|---------------------------|------------------------------|
|---------------------------|------------------------------|
|-10---------10-9---------9-|-12---------9-10--------------|
|----0-0-0-0------0-0-0-0---|----8-8-8-8------7-7-7-7-7-7--|


  E5  E5  E5  E5                    E5  E5  E5  E5        E5E5D#5/Bb
  PM------------|                   PM------------|         PM
                  |-3-|   |-3-|                     |-3-|
  S S S S S S S S S S S E S S S E   S S S S S S S S S S S E E E
|---------------------------------|-----------------------------|
|---------------------------------|-----------------------------|
|---------------------------------|-----------------------------|
|-2---2---2---2-----------------1-|-2---2---2---2---------2---1-|
|-2---2---2---2---------2---------|-2---2---2---2---------2-2-1-|
|-0-0-0-0-0-0-0-0-0h2h3---0h2h3---|-0-0-0-0-0-0-0-0-0h2h3---0---|


  E5  E5  E5  E5                    E5  E5  E5  E5        E5E5D#5/Bb
  PM------------|                   PM------------|         PM
                  |-3-|   |-3-|                     |-3-|
  S S S S S S S S S S S E S S S E   S S S S S S S S S S S E E E
|---------------------------------|-----------------------------|
|---------------------------------|-----------------------------|
|---------------------------------|-----------------------------|
|-2---2---2---2-----------------1-|-2---2---2---2---------2---1-|
|-2---2---2---2---------2---------|-2---2---2---2---------2-2-1-|
|-0-0-0-0-0-0-0-0-0h2h3---0h2h3---|-0-0-0-0-0-0-0-0-0h2h3---0---|


 Chorus
  N.C.                                N.C.
  PM------------|                     PM------------|
                  |-3--|   |-3--|                     |-3--|   |-3--|
  S S S S S S S S S  S S E S  S S E   S S S S S S S S S  S S E S  S S  E
|-----------------------------------|------------------------------------|
|-----------------------------------|------------------------------------|
|-----------------------------------|------------------------------------|
|------------------------9--------8-|------------------------9-----------|
|-----------------7h10p7---7h10p7---|-----------------7h10p7---7h10p7-10-|
|-0-0-0-0-0-0-0-0-------------------|-0-0-0-0-0-0-0-0--------------------|
|
| Gtr II
| PM------------|                     PM------------|
|                 |-3--|   |-3--|                     |-3--|   |-3--|
| S S S S S S S S S  S S E S  S S E   S S S S S S S S S  S S E S  S S  E
|-----------------------------------|------------------------------------|
|-----------------------------------|------------------------------------|
|-----------------------------------|------------------------------------|
|------------------------9--------8-|------------------------9-----------|
|-----------------7h10p7---7h10p7---|-----------------7h10p7---7h10p7--6-|
|-0-0-0-0-0-0-0-0-------------------|-0-0-0-0-0-0-0-0--------------------|


  N.C.                                N.C.
  Gtrs I, II
  PM------------|                     PM------------|
                  |-3--|   |-3--|                     |-3--|
  S S S S S S S S S  S S E S  S S E   S S S S S S S S S  S S E E E
|-----------------------------------|------------------------------|
|-----------------------------------|------------------------------|
|-----------------------------------|------------------------------|
|------------------------9--------8-|------------------------9-----|
|-----------------7h10p7---7h10p7---|-----------------7h10p7---6-9-|
|-0-0-0-0-0-0-0-0-------------------|-0-0-0-0-0-0-0-0--------------|


 Verse
  N.C.                        N.C.
   E S S S S  E E S S S S E    E S S S S E  E S S S S S S
|---------------------------|-----------------------------|
|---------------------------|-----------------------------|
|---------------------------|-----------------------------|
|---------------------------|-----------------------------|
|-10---------10-9---------9-|-12---------9-10-------------|
|----0-0-0-0------0-0-0-0---|----8-8-8-8------7-7-7-7-7-7-|


  N.C.                        N.C.
   E S S S S  E E S S S S E    E S S S S E  E S S S S S S
|---------------------------|------------------------------|
|---------------------------|------------------------------|
|---------------------------|------------------------------|
|---------------------------|------------------------------|
|-10---------10-9---------9-|-12---------9-10--------------|
|----0-0-0-0------0-0-0-0---|----8-8-8-8------7-7-7-7-7-7--|


  N.C.                        N.C.
   E S S S S  E E S S S S E    E S S S S E  E S S S S S S
|---------------------------|-----------------------------|
|---------------------------|-----------------------------|
|---------------------------|-----------------------------|
|---------------------------|-----------------------------|
|-10---------10-9---------9-|-12---------9-10-------------|
|----0-0-0-0------0-0-0-0---|----8-8-8-8------7-7-7-7-7-7-|


  N.C.                        N.C.
   E S S S S  E E S S S S E    E S S S S E  E S S S S S S
|---------------------------|------------------------------|
|---------------------------|------------------------------|
|---------------------------|------------------------------|
|---------------------------|------------------------------|
|-10---------10-9---------9-|-12---------9-10--------------|
|----0-0-0-0------0-0-0-0---|----8-8-8-8------7-7-7-7-7-7--|


  E5  E5  E5  E5                    E5  E5  E5  E5        E5E5D#5/Bb
  PM------------|                   PM------------|         PM
                  |-3-|   |-3-|                     |-3-|
  S S S S S S S S S S S E S S S E   S S S S S S S S S S S E E E
|---------------------------------|-----------------------------|
|---------------------------------|-----------------------------|
|---------------------------------|-----------------------------|
|-2---2---2---2-----------------1-|-2---2---2---2---------2---1-|
|-2---2---2---2---------2---------|-2---2---2---2---------2-2-1-|
|-0-0-0-0-0-0-0-0-0h2h3---0h2h3---|-0-0-0-0-0-0-0-0-0h2h3---0---|


  E5  E5  E5  E5                    E5  E5  E5  E5        E5E5D#5/Bb
  PM------------|                   PM------------|         PM
                  |-3-|   |-3-|                     |-3-|
  S S S S S S S S S S S E S S S E   S S S S S S S S S S S E E E
|---------------------------------|-----------------------------|
|---------------------------------|-----------------------------|
|---------------------------------|-----------------------------|
|-2---2---2---2-----------------1-|-2---2---2---2---------2---1-|
|-2---2---2---2---------2---------|-2---2---2---2---------2-2-1-|
|-0-0-0-0-0-0-0-0-0h2h3---0h2h3---|-0-0-0-0-0-0-0-0-0h2h3---0---|


 Chorus
  N.C.                                N.C.
  PM------------|                     PM------------|
                  |-3--|   |-3--|                     |-3--|   |-3--|
  S S S S S S S S S  S S E S  S S E   S S S S S S S S S  S S E S  S S  E
|-----------------------------------|------------------------------------|
|-----------------------------------|------------------------------------|
|-----------------------------------|------------------------------------|
|------------------------9--------8-|------------------------9-----------|
|-----------------7h10p7---7h10p7---|-----------------7h10p7---7h10p7--6-|
|-0-0-0-0-0-0-0-0-------------------|-0-0-0-0-0-0-0-0--------------------|
|
| Gtr II
| PM------------|                     PM------------|
|                 |-3--|   |-3--|                     |-3--|   |-3--|
| S S S S S S S S S  S S E S  S S E   S S S S S S S S S  S S E S  S S  E
|-----------------------------------|------------------------------------|
|-----------------------------------|------------------------------------|
|-----------------------------------|------------------------------------|
|------------------------9--------8-|------------------------9-----------|
|-----------------7h10p7---7h10p7---|-----------------7h10p7---7h10p7-10-|
|-0-0-0-0-0-0-0-0-------------------|-0-0-0-0-0-0-0-0--------------------|


  N.C.
  Gtrs I, II
  PM------------|
                  |-3--|   |-3--|
  S S S S S S S S S  S S E S  S S E
|-----------------------------------|
|-----------------------------------|
|-----------------------------------|
|------------------------9--------8-|
|-----------------7h10p7---7h10p7---|
|-0-0-0-0-0-0-0-0-------------------|


  N.C.                           N.C.            C5B5 G5F#5
  PM------------|
                  |-3--|
  S S S S S S S S S  S S E E E   S S S S S S S S S E. S E.
|------------------------------|---------------------------|
|------------------------------|---------------------------|
|------------------------------|---------------------------|
|------------------------9-----|-----------------5-4-------|
|-----------------7h10p7---6-9-|-----------------3-2--5-4--|
|-0-0-0-0-0-0-0-0--------------|-0-0-0-0-0-0-0-0------3-2--|


   Interlude
    G5     A5Bb5 D5    C#5               F5     G5G#5 C5    B5
    Gtr I
    Q.     E Q   Q     W                 Q.     E Q   Q     W
||-------------------|-----------------|------------------|-------------------||
||o------------------|-----------------|------------------|------------------o||
||---------------7---|-6---------------|--------------5---|-4-----------------||
||--5------7-8---7---|-6---------------|-3------5-6---5---|-4-----------------||
||o-5------7-8---5---|-4---------------|-3------5-6---3---|-2----------------o||
||--3------5-6-------|-----------------|-1------3-4-------|-------------------||
|
|   Gtr II
|   ~~       ~         ~~~~~~~~~~~~~~~~~~~~~      ~         ~
|   Q.     E Q   Q     W                 Q.     E Q   Q     W
||-------------------|-----------------|------------------|-------------------||
||o------------------|-----------------|------------------|------------------o||
||-------------------|-----------------|------------------|-------------------||
||-------------------|-----------------|------------------|-------------------||
||o--------------5---|-4---------------|--------------3---|-2----------------o||
||--3------5-6-------|-----------------|-1------3-4-------|-------------------||
|
|   Gtr IV
|   E  E E E E E E E   E E E E E E E E   E  E E E E E E E   E E E E E E E E
||-------------------|-----------------|------------------|-------------------||
||o------3-----3-----|-----2-----2-----|------1-----1-----|-----0-----0------o||
||-----3-----3-----3-|---2-----2-----2-|----1-----1-----1-|---0-----0-----0---||
||--5------5-----5---|-5-----5-----5---|-3------3-----3---|-3-----3-----3-----||
||o------------------|-----------------|------------------|------------------o||
||-------------------|-----------------|------------------|-------------------||


 Guitar Solo
  Gtr I
   ~~~~~~~~~~~~~~~~~~
   H             +Q.          S  S    Q.          E  Q      E       +E
|----------------------------------|--------------------------------------|
|-12------------(12)---------13p12-|-13----------12-10-----12b13---(12)---|
|----------------------------------|--------------------------------------|
|----------------------------------|--------------------------------------|
|----------------------------------|--------------------------------------|
|----------------------------------|--------------------------------------|
|
| Gtr II
|  ~~~~~~~~~~~~~~~~~~
|  H             +Q.          S  S    Q.          E  Q      E       +E
|----------------------------------|--------------------------------------|
|----------------------------------|--------------------------------------|
|----------------------------------|--------------------------------------|
|--9-------------(9)---------10p=9-|-10-----------9--7------9b10----(9)---|
|----------------------------------|--------------------------------------|
|----------------------------------|--------------------------------------|
|
| Gtr III
|  E S S S S  E   E  S S S S  E       E  S S S S  E  E S S  S    S   S  S
|----------------------------------|--------------------------------------|
|----------------------------------|--------------------------------------|
|----------------------------------|--------------------------------------|
|----------------------------------|--------------------------------------|
|-10---------10---9-----------9----|-12-----------9-10--------------------|
|----0-0-0-0---------0-0-0-0-------|-----8-8-8-8-------7-7--7----7---7--7-|


   W                           H            H
|---------------------------|-----------------------------|
|-12------------------------|-\8------------4-------------|
|---------------------------|-----------------------------|
|---------------------------|-----------------------------|
|---------------------------|-----------------------------|
|---------------------------|-----------------------------|
|
|  W                           H            H
|---------------------------|-----------------------------|
|---------------------------|-----------------------------|
|---------------------------|-----------------------------|
|--9------------------------|-\5------------4-------------|
|---------------------------|-----------------------------|
|---------------------------|-----------------------------|
|
|  E S S S S  E E S S S S E    E S S S S E  E S S S S S S
|---------------------------|-----------------------------|
|---------------------------|-----------------------------|
|---------------------------|-----------------------------|
|---------------------------|-----------------------------|
|-10---------10-9---------9-|-12---------9-10-------------|
|----0-0-0-0------0-0-0-0---|----8-8-8-8------7-7-7-7-7-7-|


  E5                                   N.C.
   S  S S  S S S S S S S S S Q          S  S S  S S S S S S S S S Q
|------------------------------------|------------------------------------|
|-12-10p0-10-8p0-8-7p0-7-5p0-5-------|-12-10p0-10-8p0-8-7p0-7-5p0-5-------|
|------------------------------------|------------------------------------|
|------------------------------------|------------------------------------|
|------------------------------------|------------------------------------|
|------------------------------------|------------------------------------|
|
|  S  S S  S S S S S S S S S Q          S  S S  S S S S S S S S S Q
|------------------------------------|------------------------------------|
|--8--7p0--7-5p0-5-3p0-3-5p0-5-------|--8--7p0--7-5p0-5-3p0-3-5p0-5-------|
|------------------------------------|------------------------------------|
|------------------------------------|------------------------------------|
|------------------------------------|------------------------------------|
|------------------------------------|------------------------------------|
|
|  S  S S  S S S S S S S S S S S S S    S  S S  S S S S S S S S S S S S S
|------------------------------------|------------------------------------|
|------------------------------------|------------------------------------|
|------------------------------------|------------------------------------|
|------------------------------------|------------------------------------|
|--2--2-2--2-2-2-2-2-2-2-2-2-2-2-2-2-|------------------------------------|
|--0--0-0--0-0-0-0-0-0-0-0-0-0-0-0-0-|--8--8-8--8-8-8-8-8-8-8-8-8-8-8-8-8-|


  C                                    N.C.              C5B5 G5F#5
                                         ~~~
   S  S S  S S S S S S S S S Q           W
|------------------------------------|------------------------------|
|-12-10p0-10-8p0-8-7p0-7-5p0-5-------|-/12--------------------------|
|------------------------------------|------------------------------|
|------------------------------------|------------------------------|
|------------------------------------|------------------------------|
|------------------------------------|------------------------------|
|
|                                        ~~~
|  S  S S  S S S S S S S S S Q           W
|------------------------------------|------------------------------|
|--8--7p0--7-5p0-5-3p0-3-5p0-5-------|------------------------------|
|------------------------------------|-/12--------------------------|
|------------------------------------|------------------------------|
|------------------------------------|------------------------------|
|------------------------------------|------------------------------|
|
|  S  S S  S S S S S S S S S S S S S     S S S S S S S S S E. S E.
|------------------------------------|------------------------------|
|------------------------------------|------------------------------|
|------------------------------------|------------------------------|
|------------------------------------|-------------------5-4--------|
|------------------------------------|-------------------3-2--5-4---|
|--5--5-5--5-5-5-5-5-5-5-5-5-5-5-5-5-|---3-3-3-3-3-3-3-3------3-2---|


 Verse
  N.C.                        N.C.
  Gtrs I, II
   E S S S S  E E S S S S E    E S S S S E  E S S S S S S
|---------------------------|-----------------------------|
|---------------------------|-----------------------------|
|---------------------------|-----------------------------|
|---------------------------|-----------------------------|
|-10---------10-9---------9-|-12---------9-10-------------|
|----0-0-0-0------0-0-0-0---|----8-8-8-8------7-7-7-7-7-7-|


  N.C.                        N.C.
   E S S S S  E E S S S S E    E S S S S E  E S S S S S S
|---------------------------|------------------------------|
|---------------------------|------------------------------|
|---------------------------|------------------------------|
|---------------------------|------------------------------|
|-10---------10-9---------9-|-12---------9-10--------------|
|----0-0-0-0------0-0-0-0---|----8-8-8-8------7-7-7-7-7-7--|


  N.C.                        N.C.
   E S S S S  E E S S S S E    E S S S S E  E S S S S S S
|---------------------------|-----------------------------|
|---------------------------|-----------------------------|
|---------------------------|-----------------------------|
|---------------------------|-----------------------------|
|-10---------10-9---------9-|-12---------9-10-------------|
|----0-0-0-0------0-0-0-0---|----8-8-8-8------7-7-7-7-7-7-|


  N.C.                        N.C.
   E S S S S  E E S S S S E    E S S S S E  E S S S S S S
|---------------------------|------------------------------|
|---------------------------|------------------------------|
|---------------------------|------------------------------|
|---------------------------|------------------------------|
|-10---------10-9---------9-|-12---------9-10--------------|
|----0-0-0-0------0-0-0-0---|----8-8-8-8------7-7-7-7-7-7--|


  E5  E5  E5  E5                    E5  E5  E5  E5        E5E5D#5/Bb
  PM------------|                   PM------------|         PM
                  |-3-|   |-3-|                     |-3-|
  S S S S S S S S S S S E S S S E   S S S S S S S S S S S E E E
|---------------------------------|-----------------------------|
|---------------------------------|-----------------------------|
|---------------------------------|-----------------------------|
|-2---2---2---2-----------------1-|-2---2---2---2---------2---1-|
|-2---2---2---2---------2---------|-2---2---2---2---------2-2-1-|
|-0-0-0-0-0-0-0-0-0h2h3---0h2h3---|-0-0-0-0-0-0-0-0-0h2h3---0---|


  E5  E5    E E5                    E5  E5  E5  E5        E5E5D#5/Bb
  PM------------|                   PM------------|         PM
                  |-3-|   |-3-|                     |-3-|
  S S S S S S S S S S S E S S S E   S S S S S S S S S S S E E E
|---------------------------------|-----------------------------|
|---------------------------------|-----------------------------|
|---------------------------------|-----------------------------|
|-2---2---2---2-----------------1-|-2---2---2---2---------2---1-|
|-2---2---2---2---------2---------|-2---2---2---2---------2-2-1-|
|-0-0-0-0-0-0-0-0-0h2h3---0h2h3---|-0-0-0-0-0-0-0-0-0h2h3---0---|


 Out-Chorus
  N.C.                                N.C.
  PM------------|                     PM------------|
                  |-3--|   |-3--|                     |-3--|   |-3--|
  S S S S S S S S S  S S E S  S S E   S S S S S S S S S  S S E S  S S  E
|-----------------------------------|------------------------------------|
|-----------------------------------|------------------------------------|
|-----------------------------------|------------------------------------|
|------------------------9--------8-|------------------------9-----------|
|-----------------7h10p7---7h10p7---|-----------------7h10p7---7h10p7--6-|
|-0-0-0-0-0-0-0-0-------------------|-0-0-0-0-0-0-0-0--------------------|
|
| Gtr II
| PM------------|                     PM------------|
|                 |-3--|   |-3--|                     |-3--|   |-3--|
| S S S S S S S S S  S S E S  S S E   S S S S S S S S S  S S E S  S S  E
|-----------------------------------|------------------------------------|
|-----------------------------------|------------------------------------|
|-----------------------------------|------------------------------------|
|------------------------9--------8-|------------------------9-----------|
|-----------------7h10p7---7h10p7---|-----------------7h10p7---7h10p7-10-|
|-0-0-0-0-0-0-0-0-------------------|-0-0-0-0-0-0-0-0--------------------|


  N.C.                                N.C.
  Gtrs I, II
  PM------------|                     PM------------|
                  |-3--|   |-3--|                     |-3--|
  S S S S S S S S S  S S E S  S S E   S S S S S S S S S  S S E E E
|-----------------------------------|------------------------------|
|-----------------------------------|------------------------------|
|-----------------------------------|------------------------------|
|------------------------9--------8-|------------------------9-----|
|-----------------7h10p7---7h10p7---|-----------------7h10p7---6-9-|
|-0-0-0-0-0-0-0-0-------------------|-0-0-0-0-0-0-0-0--------------|


  N.C.                                N.C.
  Gtr I
  PM------------|                     PM------------|
                  |-3--|   |-3--|                     |-3--|   |-3--|
  S S S S S S S S S  S S E S  S S E   S S S S S S S S S  S S E S  S S  E
|-----------------------------------|------------------------------------|
|-----------------------------------|------------------------------------|
|-----------------------------------|------------------------------------|
|------------------------9--------8-|------------------------9-----------|
|-----------------7h10p7---7h10p7---|-----------------7h10p7---7h10p7--6-|
|-0-0-0-0-0-0-0-0-------------------|-0-0-0-0-0-0-0-0--------------------|
|
| Gtr II
| PM------------|                     PM------------|
|                 |-3--|   |-3--|                     |-3--|   |-3--|
| S S S S S S S S S  S S E S  S S E   S S S S S S S S S  S S E S  S S  E
|-----------------------------------|------------------------------------|
|-----------------------------------|------------------------------------|
|-----------------------------------|------------------------------------|
|------------------------9--------8-|------------------------9-----------|
|-----------------7h10p7---7h10p7---|-----------------7h10p7---7h10p7-10-|
|-0-0-0-0-0-0-0-0-------------------|-0-0-0-0-0-0-0-0--------------------|


  N.C.                                N.C.            C5B5 G5F#5
  Gtrs I, II
  PM------------|                     PM------------|
                  |-3--|   |-3--|
  S S S S S S S S S  S S E S  S S E   S S S S S S S S S E. S E.
|-----------------------------------|---------------------------*|
|-----------------------------------|---------------------------*|
|-----------------------------------|---------------------------*|
|------------------------9--------8-|-----------------5-4-------*|
|-----------------7h10p7---7h10p7---|-----------------3-2--5-4--*|
|-0-0-0-0-0-0-0-0-------------------|-0-0-0-0-0-0-0-0------3-2--*|



------------------------------------------------------------------------------
02) SLAUGHTER OF THE SOUL
-------------------------

                              SLAUGHTER OF THE SOUL
                           As recorded by At The Gates
                   (From the 1995 Album SLAUGHTER OF THE SOUL)

Words by Tomas Lindberg

Music by Ander Björler
Arranged by At The Gates
Transcribed by Krim

Gtr I (B E A D F# B) - 'Untitled'
Gtr II (B E A D F# B) - 'Untitled'
Gtr III (B E A D F# B) - 'Untitled'

 Intro
  Q=235
       C5      N.C.
 4/4
       Gtr I
               PM----|   PM|       PM  PM|    PM|
  H    H       E S S E E E E E E   E E E E  E E E E
|------------|-------------------|------------------|
|------------|-------------------|------------------|
|------------|-------------------|------------------|
|------------|-------------------|------------------|
|------------|---------7-----5h7-|---7-----10-----9-|
|------8\----|-0-0-0-0---0-0-----|-0---0-0----0-0---|
|
| Gtr II
| W            W                   W
|------------|-------------------|------------------|
|------------|-------------------|------------------|
|------------|-------------------|------------------|
|------------|-------------------|------------------|
|------------|-------------------|------------------|
|------------|-------------------|------------------|


                      E5
  PM--------|         PM------|    PM---|
  E E E S S E E E E   E  S S  E E  E    E E E
|-------------------|---------------------------|
|-------------------|---------------------------|
|-------------------|---------------------------|
|-------------------|---------------------------|
|-----2-2-2-2-3-----|-----------7---------5h7---|
|-0-0-----------3-2-|-0--0-0--0----0----0-------|
|
| W                   E.   E.   E.   E.   E.  S
|-------------------|---------------------------|
|-------------------|---------------------------|
|-------------------|---------------------------|
|-------------------|---------------------------|
|-------------------|-2---------2---------2-----|
|-------------------|-0---------0---------0-----|


                                  Pre-Verse
    E5        E5        N.C.
                                   PM----|   PM|       PM  PM|    PM|
  E E  E    E E. Q  S   W          E S S E E E E E E   E E E E  E E E E
|---------------------|----------|-------------------|--------------------|
|---------------------|----------|-------------------|--------------------|
|---------------------|----------|-------------------|--------------------|
|---------------------|----------|-------------------|--------------------|
|---7---------2-------|----------|---------7-----5h7-|---7-----10-----9---|
|-0----0----0-0-------|----------|-0-0-0-0---0-0-----|-0---0-0----0-0-----|
|
|                                  PM----|   PM|       PM  PM|    PM|
| E E.   E.   E. Q  S   W          E S S E E E E E E   E E E E  E E E E
|---------------------|----------|-------------------|--------------------|
|---------------------|----------|-------------------|--------------------|
|---------------------|----------|-------------------|--------------------|
|---------------------|----------|-------------------|--------------------|
|---2---------2-------|----------|---------7-----5h7-|---7-----10-----9---|
|---0---------0-------|----------|-0-0-0-0---0-0-----|-0---0-0----0-0-----|


  N.C.
  Gtrs I, II
  PM--------|         PM----|   PM|       PM  PM|    PM|     PM|
  E E E S S E E E E   E S S E E E E E E   E E E E  E E E E   E E E E E Q.
|-------------------|-------------------|------------------|---------------|
|-------------------|-------------------|------------------|---------------|
|-------------------|-------------------|------------------|---------------|
|-------------------|-------------------|------------------|---------------|
|-----2-2-2-2-3-----|---------7-----5h7-|---7-----10-----9-|-----2h5p2h6---|
|-0-0-----------3-2-|-0-0-0-0---0-0-----|-0---0-0----0-0---|-0-0-----------|


  N.C.
  PM----|   PM|       PM  PM|    PM|
  E S S E E E E E E   E E E E  E E E E
|-------------------|------------------|
|-------------------|------------------|
|-------------------|------------------|
|-------------------|------------------|
|---------7-----5h7-|---7-----10-----9-|
|-0-0-0-0---0-0-----|-0---0-0----0-0---|


  PM--------|         PM----|   PM|
  E E E S S E E E E   E S S E E E E E E
|-------------------|--------------------|
|-------------------|--------------------|
|-------------------|--------------------|
|-------------------|--------------------|
|-----2-2-2-2-3-----|---------7-----5h7--|
|-0-0-----------3-2-|-0-0-0-0---0-0------|


  N.C.
  PM  PM|    PM|     PM|
  E E E E  E E E E   E E E E E Q.
|------------------|----------------|
|------------------|----------------|
|------------------|----------------|
|------------------|----------------|
|---7-----10-----9-|-----2h5p2h6----|
|-0---0-0----0-0---|-0-0------------|


   Verse
    N.C.
    PM----|   PM--|   PM----|       PM----|
    E S S E E S S E E S S   E E E E E S S E  E
||------------------------|--------------------|
||o-----------------------|--------------------|
||------------------------|--------------------|
||------------------------|---9----------------|
||o---------7-------7-----|-----7-----------10-|
||--0-0-0-0---0-0-0---0-0-|-0-----7-8-8-8-8----|


  PM--|      PM   PM------------|   PM--|
  S S E E  E E  E S S E   E S S E E S S E E E
|-----------------------|---------------------|
|-----------------------|---------------------|
|-----------------------|---------------------|
|--------------10-------|---------------------|
|-------9h10------------|---------3-------2h3-|
|-8-8-8------8----8-8-8-|-5-5-5-5---5-5-5-----|


  N.C.
  PM--------------|     PM------------------|
  E E S S E E S S E E   S S E E S S E E S S E
|---------------------|------------------------||
|---------------------|-----------------------o||
|---------------------|------------------------||
|---------------------|------------------------||
|-------------------2-|-----------------------o||
|-5-5-5-5-5-3-3-3-3---|-3-3-3-1-1-1-1-1-1-1-1--||


   Chorus
    N.C.
    Gtr I
    PM----|    PM  PM------|   PM   PM----|
    E S S E  E E E E S S   E E E  E E S S E  E
||-----------------------|---------------------|
||o----------------------|---------------------|
||-----------------------|---------------------|
||-----------------------|---------------------|
||o---------10---9-------|---9----7---------10-|
||--0-0-0-0----0---8-8-8-|-8---8----0-0-0-0----|
|
|   Gtr II
|   PM----|    PM  PM------|   PM   PM----|
|   E S S E  E E E E S S   E E E  E E S S E  E
||-----------------------|---------------------|
||o----------------------|---------------------|
||-----------------------|---------------------|
||-----------9---7-------|---7---------------9-|
||o----------------------|-------10------------|
||--0-0-0-0----0---8-8-8-|-8---8----0-0-0-0----|


 1.                    2.
  PM
  E E E E  E E E  E     E E Q.   Q.
|--------------------||---------------|
|-------------------o||---------------|
|--------------------||---------------|
|--------------------||---------------|
|---9--------7h9h10-o||---9------6----|
|-0---7h8h10---------||-0---7---------|
|
| PM
| E E E E  E E E  E     E E Q.   Q.
|--------------------||---------------|
|-------------------o||---------------|
|--------------------||---------------|
|---7----------------||---7-----------|
|------------7h9h10-o||-----6----9----|
|-0---7h8h10---------||-0-------------|


 Pre-Verse
  N.C.
  Gtrs I, II
  PM----|   PM|       PM  PM|    PM|
  E S S E E E E E E   E E E E  E E E E
|-------------------|------------------|
|-------------------|------------------|
|-------------------|------------------|
|-------------------|------------------|
|---------7-----5h7-|---7-----10-----9-|
|-0-0-0-0---0-0-----|-0---0-0----0-0---|


  PM--------|         PM----|   PM|
  E E E S S E E E E   E S S E E E E E E
|-------------------|--------------------|
|-------------------|--------------------|
|-------------------|--------------------|
|-------------------|--------------------|
|-----2-2-2-2-3-----|---------7-----5h7--|
|-0-0-----------3-2-|-0-0-0-0---0-0------|


  N.C.
  PM  PM|    PM|     PM|
  E E E E  E E E E   E E E E E Q.
|------------------|----------------|
|------------------|----------------|
|------------------|----------------|
|------------------|----------------|
|---7-----10-----9-|-----2h5p2h6----|
|-0---0-0----0-0---|-0-0------------|


  N.C.                                                       E5
  PM----|   PM|       PM  PM|    PM|     PM--------|
  E S S E E E E E E   E E E E  E E E E   E E E S S E E E E   E. E. E. E. E. S
|-------------------|------------------|-------------------|------------------|
|-------------------|------------------|-------------------|------------------|
|-------------------|------------------|-------------------|------------------|
|-------------------|------------------|-------------------|------------------|
|---------7-----5h7-|---7-----10-----9-|-----2-2-2-2-3-----|-2-----2-----2----|
|-0-0-0-0---0-0-----|-0---0-0----0-0---|-0-0-----------3-2-|-0-----0-----0----|


                               Verse
    E5                          N.C.
                                PM----|   PM--|   PM----|       PM----|
  E E. E. H      +W             E S S E E S S E E S S   E E E E E S S E  E
|--------------|------------||------------------------|---------------------|
|--------------|------------||o-----------------------|---------------------|
|--------------|------------||------------------------|---------------------|
|--------------|------------||------------------------|---9-----------------|
|---2-----2----|-(2)--------||o---------7-------7-----|-----7-----------10--|
|---0-----0----|-(0)--------||--0-0-0-0---0-0-0---0-0-|-0-----7-8-8-8-8-----|


  N.C.
  PM--|      PM   PM------------|   PM--|
  S S E E  E E  E S S E   E S S E E S S E E E
|-----------------------|---------------------|
|-----------------------|---------------------|
|-----------------------|---------------------|
|--------------10-------|---------------------|
|-------9h10------------|---------3-------2h3-|
|-8-8-8------8----8-8-8-|-5-5-5-5---5-5-5-----|


  PM--------------|     PM------------------|
  E E S S E E S S E E   S S E E S S E E S S E
|---------------------|------------------------||
|---------------------|-----------------------o||
|---------------------|------------------------||
|---------------------|------------------------||
|-------------------2-|-----------------------o||
|-5-5-5-5-5-3-3-3-3---|-3-3-3-1-1-1-1-1-1-1-1--||


   Chorus
    N.C.
    Gtr I
    PM----|    PM  PM------|   PM   PM----|
    E S S E  E E E E S S   E E E  E E S S E  E
||-----------------------|---------------------|
||o----------------------|---------------------|
||-----------------------|---------------------|
||-----------------------|---------------------|
||o---------10---9-------|---9----7---------10-|
||--0-0-0-0----0---8-8-8-|-8---8----0-0-0-0----|
|
|   Gtr II
|   PM----|    PM  PM------|   PM   PM----|
|   E S S E  E E E E S S   E E E  E E S S E  E
||-----------------------|---------------------|
||o----------------------|---------------------|
||-----------------------|---------------------|
||-----------9---7-------|---7---------------9-|
||o----------------------|-------10------------|
||--0-0-0-0----0---8-8-8-|-8---8----0-0-0-0----|


 1.                    2.
  PM
  E E E E  E E E  E     E E Q.   Q.
|--------------------||---------------|
|-------------------o||---------------|
|--------------------||---------------|
|--------------------||---------------|
|---9--------7h9h10-o||---9------6----|
|-0---7h8h10---------||-0---7---------|
|
| PM
| E E E E  E E E  E     E E Q.   Q.
|--------------------||---------------|
|-------------------o||---------------|
|--------------------||---------------|
|---7----------------||---7-----------|
|------------7h9h10-o||-----6----9----|
|-0---7h8h10---------||-0-------------|


 Interlude
  G     F#    C5         E    E5    F#         G     A       E5    F#    C5
  Gtr I
   H.          Q     +H        H          +Q    Q.    Q.      H.          Q
|-----------------|--------------------|-------------------|-----------------|
|-----------------|--------------------|-------------------|-----------------|
|-----------------|--------------------|-------------------|-----------------|
|--9-----------5--|--(5)-------9-------|--(9)---5-----9----|--9-----------5--|
|--7-----------3--|--(3)-------7-------|--(7)--------------|--7-----------3--|
|-----------------|--------------------|--------3-----7----|-----------------|
|
| Gtr II
|  Q.    Q.    Q     +E  Q.    Q.    E    +Q    Q.    Q.      Q.    Q.    Q
|-----------------|--------------------|-------------------|-----------------|
|-----------------|--------------------|-------12----10----|-----------------|
|-12----11----11--|-(11)-9----12----11-|-(11)--------------|-12----11----11--|
|-----------------|--------------------|--------9-----7----|-----------------|
|-10-----9-----9--|--(9)-7----10-----9-|--(9)--------------|-10-----9-----9--|
|-----------------|--------------------|-------------------|-----------------|


       E                            E5    F#    C5         E    E5    F#
   +H       Q.   E   +Q   H.         H.          Q     +H        H
|------------------|--------------|-----------------|--------------------|
|------------------|--------------|-----------------|--------------------|
|------------------|--------------|-----------------|--------------------|
|--(5)-------------|--------------|--9-----------5--|--(5)-------9-------|
|--(3)-------------|--------------|--7-----------3--|--(3)-------7-------|
|-----------5----7-|-(7)--7-------|-----------------|--------------------|
|
|  +E  Q.   Q.   E    E E H.         Q.    Q.    Q     +E  Q.    Q.    E
|------------------|--------------|-----------------|--------------------|
|------------------|--------------|-----------------|--------------------|
|-(11)-9-----------|--------------|-12----11----11--|-(11)-9----12----11-|
|------------------|--------------|-----------------|--------------------|
|--(9)-7----7----6h|==7p6---------|-10-----9-----9--|--(9)-7----10-----9-|
|------------------|------7-------|-----------------|--------------------|


        G     B       E5    F#    C5         E             N.C.
   +Q    Q.    Q.      H.          Q     +H       Q.   E   +Q   E E E Q.
|-------------------|-----------------|------------------|-----------------|
|-------------------|-----------------|------------------|-----------------|
|-------------------|-----------------|------------------|-----------------|
|--(9)---5-----9----|--9-----------5--|--(5)-------------|-----------------|
|--(7)--------------|--7-----------3--|--(3)-------------|------2h5p2h6----|
|--------3-----7----|-----------------|-----------5----7-|-(7)-------------|
|
|  +Q    Q.    Q.      Q.    Q.    Q     +E  Q.   H        +W
|-------------------|-----------------|------------------|-----------------|
|-------12----10----|-----------------|------------------|-----------------|
|-(11)--------------|-12----11----11--|-(11)-9-----------|-----------------|
|--------9-----7----|-----------------|------------------|-----------------|
|--(9)--------------|-10-----9-----9--|--(9)-7----7------|-(7)-------------|
|-------------------|-----------------|------------------|-----------------|


  N.C.
  PM----|   PM|       PM  PM|
  E S S E E E E E E   E E E E Q  E E   E H.      +E
|-------------------|----------------|---------------|
|-------------------|----------------|---------------|
|-------------------|----------------|---------------|
|-------------------|----------------|---------------|
|---------7-----5h7-|---7------------|---------------|
|-0-0-0-0---0-0-----|-0---0-0-3--3-6-|-7-6-------(6)-|


                              E5 B5   Bb5A5
  PM----|   PM|       PM  PM|
  E S S E E E E E E   E E E E Q  Q    Q  H.
|-------------------|---------------|----------|
|-------------------|---------------|----------|
|-------------------|---------------|----------|
|-------------------|------------4--|-3--2-----|
|---------7-----5h7-|---7-----2--2--|-1--0-----|
|-0-0-0-0---0-0-----|-0---0-0-0-----|----------|


  N.C.
  PM----|   PM|       PM  PM|
  E S S E E E E E E   E E E E Q  E E   E H.      +E
|-------------------|----------------|---------------|
|-------------------|----------------|---------------|
|-------------------|----------------|---------------|
|-------------------|----------------|---------------|
|---------7-----5h7-|---7------------|---------------|
|-0-0-0-0---0-0-----|-0---0-0-3--3-6-|-7-6-------(6)-|


  N.C.
  PM----|   PM|       PM  PM|
  E S S E E E E E E   E E E E Q  Q    Q  Q  Q  Q
|-------------------|---------------|-------------|
|-------------------|---------------|-------------|
|-------------------|---------------|-------------|
|-------------------|---------------|-------------|
|---------7-----5h7-|---7-----------|-------5--6--|
|-0-0-0-0---0-0-----|-0---0-0-3--5--|-6--7--------|


 Guitar Solo
  E5            E5                  N.C.
  Gtr I
   W             H      H           +W                 Q   H.
|-10----------|-10------9b10r=====|=(9)-------------|-10--10-----|
|-------------|-------------------|-----------------|------------|
|-------------|-------------------|-----------------|------------|
|-------------|-------------------|-----------------|------------|
|-------------|-------------------|-----------------|------------|
|-------------|-------------------|-----------------|------------|
|
| Gtr II
|  W             H      H           +W                 Q   H.
|--7----------|--7------6b7r======|=(6)-------------|--7---7-----|
|-------------|-------------------|-----------------|------------|
|-------------|-------------------|-----------------|------------|
|-------------|-------------------|-----------------|------------|
|-------------|-------------------|-----------------|------------|
|-------------|-------------------|-----------------|------------|
|
| Gtr III
|  Q  H.         Q.   E Q     E E    E  H.      +E     Q   H.
|-------------|-------------------|-----------------|------------|
|-------------|-------------------|-----------------|------------|
|-------------|-------------------|-----------------|------------|
|-------------|-------------------|-----------------|------------|
|--2--2-------|--2----------------|-----------------|------------|
|--0--0-------|--0------3-----3-6-|--7--6-------(6)-|--0---0-----|


               E5    B5   Bb5  A5
   Q   S  S  E H          +W
|-14--10h14p10-9b10r====|=(9)----------|
|-----------------------|--------------|
|-----------------------|--------------|
|-----------------------|--------------|
|-----------------------|--------------|
|-----------------------|--------------|
|
|  Q   S  S  E H          +W
|-10---7h10p=7-6b7r=====|=(6)----------|
|-----------------------|--------------|
|-----------------------|--------------|
|-----------------------|--------------|
|-----------------------|--------------|
|-----------------------|--------------|
|
|  H           Q     Q     Q   H.
|-----------------------|--------------|
|-----------------------|--------------|
|-----------------------|--------------|
|--------------------4--|--3---2-------|
|--------------2-----2--|--1---0-------|
|--------------0--------|--------------|


  E5                    E5
   E E E   E E E  E E    E   E E E   H
|---------------------|----------------------|
|---------------------|----------------------|
|-12-0-0--12-0-0-12-0-|--0--12-0-0-[12]------|
|---------------------|----------------------|
|---------------------|----------------------|
|---------------------|----------------------|
|
|  E E E   E E E  E E    E   E E E   H
|---------------------|----------------------|
|---------------------|----------------------|
|-12-0-0--12-0-0-12-0-|--0--12-0-0-[12]------|
|---------------------|----------------------|
|---------------------|----------------------|
|---------------------|----------------------|
|
|  Q   H.               +H           Q   E E
|---------------------|----------------------|
|---------------------|----------------------|
|---------------------|----------------------|
|---------------------|----------------------|
|--2---2--------------|-(2)------------------|
|--0---0--------------|-(0)----------3---3-6-|


  N.C.
   +W                E E E   E  E  E  E  E
|------------------|-----------------12-12-|
|------------------|--------12-12-12-------|
|-(12)-------------|-9-9-9-----------------|
|------------------|-----------------------|
|------------------|-----------------------|
|------------------|-----------------------|
|
|  +W                E E E   E  E  E  E  E
|------------------|-----------------12-12-|
|------------------|--------12-12-12-------|
|-(12)-------------|-9-9-9-----------------|
|------------------|-----------------------|
|------------------|-----------------------|
|------------------|-----------------------|
|
|   E  H.      +E    Q   H.
|------------------|-----------------------|
|------------------|-----------------------|
|------------------|-----------------------|
|------------------|-----------------------|
|------------------|-----------------------|
|---7--6-------(6)-|-0---0-----------------|


   E  E  E  E  H            +W
|-12----------12---------|-(12)-----------|
|----12-12-12-15b17======|=(15)-----------|
|------------------------|----------------|
|------------------------|----------------|
|------------------------|----------------|
|------------------------|----------------|
|
|  E  E  E  E  H            +W
|-12----------12---------|-(12)-----------|
|----12-12-12-15b17======|=(15)-----------|
|------------------------|----------------|
|------------------------|----------------|
|------------------------|----------------|
|------------------------|----------------|
|
|  H           Q      Q      Q   Q  Q  Q
|------------------------|----------------|
|------------------------|----------------|
|------------------------|----------------|
|------------------------|----------------|
|------------------------|----------5--6--|
|--------------3------5--|---6---7--------|


  N.C.
  W                H       H        +H        H          W
|---------------|-----------------|-------------------|----------------|
|---------------|-----------------|-------------------|----------------|
|---------------|-----------------|-------------------|----------------|
|---------------|-----------------|-------------------|----------------|
|-7-------------|-10-------9------|-(9)------12-------|-10-------------|
|---------------|-----------------|-------------------|----------------|
|
| W                H       H        +H        H          W
|---------------|-----------------|-------------------|----------------|
|---------------|-----------------|-------------------|----------------|
|---------------|-----------------|-------------------|----------------|
|-5-------------|--9-------7------|-(7)------10-------|--9-------------|
|---------------|-----------------|-------------------|----------------|
|---------------|-----------------|-------------------|----------------|
|
| PM----------------------------------------------------------------|
| Q  E E E E Q     E E E E Q  E E    E  E Q   E E E E    Q  E E E E Q
|---------------|-----------------|-------------------|----------------|
|---------------|-----------------|-------------------|----------------|
|---------------|-----------------|-------------------|----------------|
|---------------|-----------------|-------------------|----------------|
|---------------|-----------------|-------------------|----------------|
|-0--0-0-0-0-0--|--0-0-0-0-8--8-8-|--8--8-8---8-8-8-8-|--0--0-0-0-0-0--|


  N.C.
  H       H        +H         H         W               H       H
|----------------|-------------------|----------------|----------------|
|----------------|-------------------|----------------|----------------|
|----------------|-------------------|----------------|----------------|
|----------------|-------------------|----------------|----------------|
|-7-------6------|-(6)-------12------|-10-------------|-9-------7------|
|----------------|-------------------|----------------|----------------|
|
| H       H        +H         H         W               H       H
|----------------|-------------------|----------------|----------------|
|----------------|-------------------|----------------|----------------|
|----------------|-------------------|----------------|----------------|
|-5-------4------|-(4)-------10------|--9-------------|-7-------5------|
|----------------|-------------------|----------------|----------------|
|----------------|-------------------|----------------|----------------|
|
| PM-------------------------|          PM---------------------------|
| E E E E Q  E E    E  E E E  E Q.      Q  E E E E Q    E E E E Q  E E
|----------------|-------------------|----------------|----------------|
|----------------|-------------------|----------------|----------------|
|----------------|-------------------|----------------|----------------|
|----------------|-------------------|----------------|----------------|
|----------------|-------2h5p=2h6----|----------------|----------------|
|-0-0-0-0-7--7-7-|--7--7-------------|--0--0-0-0-0-0--|-0-0-0-0-0--8-8-|


  N.C.
  +H       H         W               H       E E Q     +H        E  E  Q
|------------------|---------------|-----------------|--------------------|
|------------------|---------------|-----------------|--------------------|
|------------------|---------------|-----------------|--------------------|
|------------------|---------------|-----------------|--------------------|
|-(7)------6-------|-7-------------|-7-------6h7h9---|-(9)-------9h10h12--|
|------------------|---------------|-----------------|--------------------|
|
| +H       H         W               H       H         +W
|------------------|---------------|-----------------|--------------------|
|------------------|---------------|-----------------|--------------------|
|------------------|---------------|-----------------|--------------------|
|-(5)------4-------|-2-------------|-----------------|--------------------|
|------------------|---------------|-7---------------|--------------------|
|------------------|---------------|---------7-------|-(7)----------------|
|
|  PM------------------------------------------------------|
|  E  E Q  E E E E   Q  E E E E Q    E E E E Q   E E    E  E E E E  Q.
|------------------|---------------|-----------------|--------------------|
|------------------|---------------|-----------------|--------------------|
|------------------|---------------|-----------------|--------------------|
|------------------|---------------|-----------------|--------------------|
|------------------|---------------|-----------------|-------2h5p2h=6-----|
|--8--8-8--8-8-8-8-|-0--0-0-0-0-0--|-0-0-0-0-7---7-7-|--7--7--------------|


 Different Chorus
  E5
  Gtrs I, II
  Q  Q  H      H    Q  E E   E H.      +E
|------------|-------------|---------------|
|------------|-------------|---------------|
|------------|-------------|---------------|
|------------|-------------|---------------|
|-2--2-------|-------------|---------------|
|-0--0-------|------3--3-6-|-7-6-------(6)-|


  E5                   B5   Bb5A5
  Q  Q  H      H    Q  Q    Q  H.
|------------|------------|----------|
|------------|------------|----------|
|------------|------------|----------|
|------------|---------4--|-3--2-----|
|-2--2-------|------2--2--|-1--0-----|
|-0--0-------|------0-----|----------|


  E5           N.C.
  Q  Q  H      H    Q  E E   E H.      +E
|------------|-------------|---------------|
|------------|-------------|---------------|
|------------|-------------|---------------|
|------------|-------------|---------------|
|-2--2-------|-------------|---------------|
|-0--0-------|------3--3-6-|-7-6-------(6)-|


  E5           N.C.
  Q  Q  H      H    Q  Q    Q  Q  Q  Q
|------------|------------|--------------|
|------------|------------|--------------|
|------------|------------|--------------|
|------------|------------|--------------|
|-2--2-------|------------|-------5--6---|
|-0--0-------|------3--5--|-6--7---------|


   Verse
    N.C.
    PM----|   PM--|   PM----|       PM----|
    E S S E E S S E E S S   E E E E E S S E  E
||------------------------|--------------------|
||o-----------------------|--------------------|
||------------------------|--------------------|
||------------------------|---9----------------|
||o---------7-------7-----|-----7-----------10-|
||--0-0-0-0---0-0-0---0-0-|-0-----7-8-8-8-8----|


  PM--|      PM   PM------------|   PM--|
  S S E E  E E  E S S E   E S S E E S S E E E
|-----------------------|---------------------|
|-----------------------|---------------------|
|-----------------------|---------------------|
|--------------10-------|---------------------|
|-------9h10------------|---------3-------2h3-|
|-8-8-8------8----8-8-8-|-5-5-5-5---5-5-5-----|


  N.C.
  PM--------------|     PM------------------|
  E E S S E E S S E E   S S E E S S E E S S E
|---------------------|------------------------||
|---------------------|-----------------------o||
|---------------------|------------------------||
|---------------------|------------------------||
|-------------------2-|-----------------------o||
|-5-5-5-5-5-3-3-3-3---|-3-3-3-1-1-1-1-1-1-1-1--||


   Chorus
    N.C.
    Gtr I
    PM----|    PM  PM------|   PM   PM----|
    E S S E  E E E E S S   E E E  E E S S E  E
||-----------------------|---------------------|
||o----------------------|---------------------|
||-----------------------|---------------------|
||-----------------------|---------------------|
||o---------10---9-------|---9----7---------10-|
||--0-0-0-0----0---8-8-8-|-8---8----0-0-0-0----|
|
|   Gtr II
|   PM----|    PM  PM------|   PM   PM----|
|   E S S E  E E E E S S   E E E  E E S S E  E
||-----------------------|---------------------|
||o----------------------|---------------------|
||-----------------------|---------------------|
||-----------9---7-------|---7---------------9-|
||o----------------------|-------10------------|
||--0-0-0-0----0---8-8-8-|-8---8----0-0-0-0----|


 1.                    2.
  PM
  E E E E  E E E  E     E E Q.   Q.
|--------------------||---------------|
|-------------------o||---------------|
|--------------------||---------------|
|--------------------||---------------|
|---9--------7h9h10-o||---9------6----|
|-0---7h8h10---------||-0---7---------|
|
| PM
| E E E E  E E E  E     E E Q.   Q.
|--------------------||---------------|
|-------------------o||---------------|
|--------------------||---------------|
|---7----------------||---7-----------|
|------------7h9h10-o||-----6----9----|
|-0---7h8h10---------||-0-------------|


 Interlude
  E5  F#      C5              E5       F#       G     B       E5  F#      C5
  Gtr I
   H.          Q     +H        H           +Q    Q.    Q.      H.          Q
|-----------------|---------------------|-------------------|-----------------|
|-----------------|---------------------|-------------------|-----------------|
|-----------------|---------------------|-------------------|-----------------|
|--9-----------5--|--(5)-------9--------|--(9)---5-----9----|--9-----------5--|
|--7-----------3--|--(3)-------7--------|--(7)--------------|--7-----------3--|
|-----------------|---------------------|--------3-----7----|-----------------|
|
|  Q.    Q.    Q     +E  Q.    Q.    E     +Q    Q.    Q.      Q.    Q.    Q
|-----------------|---------------------|-------------------|-----------------|
|-----------------|---------------------|-------12----10----|-----------------|
|-12----11----11--|-(11)-9----12----11--|-(11)--------------|-12----11----11--|
|-----------------|---------------------|--------9-----7----|-----------------|
|-10-----9-----9--|--(9)-7----10-----9--|--(9)--------------|-10-----9-----9--|
|-----------------|---------------------|-------------------|-----------------|


  C5   E                            E5    F#    C5         E    E5    F#
   +H       Q.   E   +Q   H.         H.          Q     +H        H
|------------------|--------------|-----------------|--------------------|
|------------------|--------------|-----------------|--------------------|
|------------------|--------------|-----------------|--------------------|
|--(5)-------------|--------------|--9-----------5--|--(5)-------9-------|
|--(3)-------------|--------------|--7-----------3--|--(3)-------7-------|
|-----------5----7-|-(7)--7-------|-----------------|--------------------|
|
|  +E  Q.   Q.   E    E E H.         Q.    Q.    Q     +E  Q.    Q.    E
|------------------|--------------|-----------------|--------------------|
|------------------|--------------|-----------------|--------------------|
|-(11)-9-----------|--------------|-12----11----11--|-(11)-9----12----11-|
|------------------|--------------|-----------------|--------------------|
|--(9)-7----7----6h|==7p6---------|-10-----9-----9--|--(9)-7----10-----9-|
|------------------|------7-------|-----------------|--------------------|


  E5    G     B       E5          C5         E
   +Q    Q.    Q.      H.          Q     +H        Q.   E   +Q   E E E Q.
|-------------------|-----------------|-------------------|-----------------|
|-------------------|-----------------|-------------------|-----------------|
|-------------------|-----------------|-------------------|-----------------|
|--(9)---5-----9----|--9-----------5--|--(5)--------------|-----------------|
|--(7)--------------|--7-----------3--|--(3)--------------|------2h5p2h6----|
|--------3-----7----|-----------------|------------5----7-|-(7)-------------|
|
|  +Q    Q.    Q.      Q.    Q.    Q     +E   Q.   H        +W
|-------------------|-----------------|-------------------|-----------------|
|-------12----10----|-----------------|-------------------|-----------------|
|-(11)--------------|-12----11----11--|-(11)--9-----------|-----------------|
|--------9-----7----|-----------------|-------------------|-
Добавлено: 29.03.2012
Другие материалы по этой песне:

Страница создана 29.03.2012
http://primanota.ru/at-the-gates/slaughter-of-the-soul-album-chords.htm
Привет, Гость.
Предлагаем пройти революционный курс по гитаре.
Подарок от PrimaNota.Ru, забирай!