PrimaNota.ru - самый крупный в мире бесплатный архив песенных текстов, аккордов, табулатур и нот


At The Gates - Raped By The Light Of Christ - текст песни, таба, видео

Регистрация Запомнить меня
Войти через:  Facebook Google Twitter Vk Yandex Mail.ru

At The Gates - Raped By The Light Of Christ - текст песни, таба, видео

Печатать
Просмотров: 148
                   RAPED BY THE LIGHT OF CHRIST
                           As recorded by At The Gates
           (From the 1993 Album WITH FEAR I KISS THE BURNING DARKNESS)

Tablature Legend
----------------
 h   - hammer-on
 p   - pull-off
 b   - bend
 pb  - pre-bend
 r   - bend release (if no number after the r, then release immediately)
 /\  - slide into or out of (from/to "nowhere")
 s   - legato slide
 S   - shift slide
  - natural harmonic
[n]  - artificial harmonic
n(n) - tapped harmonic
 ~   - vibrato
 tr  - trill
 T   - tap
 TP  - trem. picking
 PM  - palm muting
\n/  - tremolo bar dip; n = amount to dip
 \n  - tremolo bar down
 n/  - tremolo bar up
/n\  - tremolo bar inverted dip
 =   - hold bend; also acts as connecting device for hammers/pulls
 <>  - volume swell (louder/softer)
 x   - on rhythm slash represents muted slash
 o   - on rhythm slash represents single note slash

Tuning: BEADGF#E
   Intro
    Q=100
    E5                C5
   4/4
    Gtr I
||------------------|----------------------|
||o-----------------|---------0----------0-|
||------9-------9---|----------------------|
||----9---9---9---9-|------10---10----10---|
||o---------7-------|---10---------10------|
||--0---------------|-8--------------------|
|
|   Gtr II
||------0-------0---|----------------------|
||o-----------------|---------0----------0-|
||----4---4---4---4-|-------5----------5---|
||--2-------2-------|----5----------5------|
||o-----------------|-3----------3---------|
||------------------|----------------------|


  E5                Dsus2
|-----------------|-------------------||
|-----------------|------------------o||
|-----9-------9---|-----9-------9-----||
|---9---9---9---9-|---7---7---7---7---||
|---------7-------|-5-------5--------o||
|-0---------------|-------------------||
|
|-----0-------0---|-----0-------0-----||
|-----------------|------------------o||
|---4---4---4---4-|---2---2---2---2---||
|-2-------2-------|-0-------0---------||
|-----------------|------------------o||
|-----------------|-------------------||


    E5                N.C.
||------------------|-----------------------|
||o-----------------|----------0----------0-|
||------9-------9---|-----------------------|
||----9---9---9---9-|-------10---10----10---|
||o---------7-------|----10---------10------|
||--0---------------|--8--------------------|
|
||------0-------0---|-----------------------|
||o-----------------|----------0----------0-|
||----4---4---4---4-|--------5----------5---|
||--2-------2-------|-----5----------5------|
||o-----------------|--3----------3---------|
||------------------|-----------------------|
|
|   Gtr III
||------------------|-----------------------|
||o-----------------|-----------------------|
||------------------|-----------------------|
||--9---------------|-10--------------------|
||o-7---------------|-----------------------|
||------------------|--8--------------------|


  E5                D5
|-----------------|-------------------||
|-----------------|------------------o||
|-----9-------9---|-----9-------9-----||
|---9---9---9---9-|---7---7---7---7---||
|---------7-------|-5-------5--------o||
|-0---------------|-------------------||
|
|-----0-------0---|-----0-------0-----||
|-----------------|------------------o||
|---4---4---4---4-|---2---2---2---2---||
|-2-------2-------|-0-------0---------||
|-----------------|------------------o||
|-----------------|-------------------||
|
|-----------------|-------------------||
|-----------------|------------------o||
|-----------------|-------------------||
|-9---------------|-7-----------------||
|-7---------------|-5----------------o||
|-----------------|-------------------||


   Theme A
    E5                                   A5/E D5
    Gtr III
                                                                      ~
||------------------------------------------|------------------------------||
||o-----------------------------------------|-----------------------------o||
||------------------------------------------|------------------------------||
||------------------------------------------|-------------------------7----||
||o-----10-10-9-9-10-10-----10-10-9-9-10-10-|-----9-9-7-7-9-9-----9-9-----o||
||--7-7-----------------7-7-----------------|-7-7-------------7-7----------||
|
|   Gtr IV
||------------------------------------------|------------------------------||
||o-----------------------------------------|-----------------------------o||
||------------------------------------------|------------------------------||
||--9----9--9-9----9--9-9----9--9-9---10--7-|-7---7-7-7---7-7-7---7---7----||
||o-7----7--7-7----7--7-7----7--7-7----7--7-|-5---5-5-5---5-5-5---5---5---o||
||------------------------------------------|------------------------------||


  E5                                        F#5
                                                                    ~
|-----------------------------------------|--------------------------------|
|-----------------------------------------|--------------------------------|
|-----------------------------------------|--------------------------------|
|-9-9-----------------9-9-----------------|-9-9-------------7-7-----9------|
|-----10-10-7-7-10-10-----10-10-7-7-10-10-|-----9-9-7-7-9-9-----9-9--------|
|-----------------------------------------|--------------------------------|
|
|-----------------------------------------|--------------------------------|
|-----------------------------------------|--------------------------------|
|-----------------------------------------|--------------------------------|
|-----------------------------------------|--------------------------------|
|-2----2--2-2----2--2-2----2--2-2----2--2-|-4---4-4-4---4-4-4---4-4-4-4-4--|
|-0----0--0-0----0--0-0----0--0-0----0--0-|-2---2-2-2---2-2-2---2-2-2-2-2--|


  B5                                        N.C.
                                                                      ~
|-----------------------------------------|------------------------------|
|-----------------------------------------|------------------------------|
|-----------------------------------------|------------------------------|
|-9-9-----------------9-9-----------------|--9-9-------------7-7------9--|
|-----10-10-7-7-10-10-----10-10-7-7-10-10-|------9-9-7-7-9-9------9-9----|
|-----------------------------------------|------------------------------|
|
|                                                                     ~
|-----------------------------------------|------------------------------|
|-----------------------------------------|------------------------------|
|-----------------------------------------|------------------------------|
|-----------------------------------------|-10---------------------------|
|-9----9--9-9----9--9-9----9--9-9----9--9-|----------------------10---9--|
|-7----7--7-7----7--7-7----7--7-7----7--7-|--8---------------7-----------|


 Theme B - Triplet theme
  E5    F5     E5    N.C.          E5    F5     E5    N.C.
 12/8
|--------------------------------|--------------------------------|
|--------------------------------|--------------------------------|
|--------------------------------|--------------------------------|
|---9-7---10-7---9-7-------------|---9-7---10-7---9-7-------------|
|-7-----8------7-----------------|-7-----8------7-----------------|
|--------------------10-8-10-8-7-|--------------------10-8-10-8-7-|
|
|--------------------------------|--------------------------------|
|--------------------------------|--------------------------------|
|-------5----5--------5----------|-------5----5--------5----------|
|-------3----3-------------------|-------3----3-------------------|
|-2---2--------2---2--3----------|-2---2--------2---2--3----------|
|-0---0--------0---0-------------|-0---0--------0---0-------------|


  E5    F5     E5    N.C.          E5  N.C.      E5  N.C.
|--------------------------------|----------------------------------|
|--------------------------------|----------------------------------|
|--------------------------------|----------------------------------|
|---9-7---10-7---9-7-------------|---9-7----10-7---9-7--------------|
|-7-----8------7-----------------|-7-----8-------7------------------|
|--------------------10-8-10-8-7-|---------------------10--8-10-8-7-|
|
|--------------------------------|----------------------------------|
|--------------------------------|----------------------------------|
|--------------------------------|----------------------------------|
|-------3----3-------------------|----------------------------------|
|-2---2--------2---2----7--------|-2-------------2------------------|
|-0---0-1----1-0---0--0--------0-|-0---7-8\------0---7--8\----------|


   Verse
    E5                          N.C.   D5
   4/4
    Gtrs III, IV
||-----------------------------------|-----------------------------||
||o----------------------------------|----------------------------o||
||-----------------------------------|-----------------------------||
||--9-9-9-9-9-9-9-9-9-9-9-9-9-9-10-7-|-7-7-7-7-7-7-7-7-7-7-7-7-7---||
||o-7-7-7-7-7-7-7-7-7-7-7-7-7-7--7-7-|-5-5-5-5-5-5-5-5-5-5-5-5-5--o||
||-----------------------------------|-----------------------------||


 Return to theme A
  E5                                        F#5
  Gtr III
                                                                    ~
|-----------------------------------------|--------------------------------|
|-----------------------------------------|--------------------------------|
|-----------------------------------------|--------------------------------|
|-9-9-----------------9-9-----------------|-9-9-------------7-7-----9------|
|-----10-10-7-7-10-10-----10-10-7-7-10-10-|-----9-9-7-7-9-9-----9-9--------|
|-----------------------------------------|--------------------------------|
|
| Gtr IV
|-----------------------------------------|--------------------------------|
|-----------------------------------------|--------------------------------|
|-----------------------------------------|--------------------------------|
|-----------------------------------------|--------------------------------|
|-2----2--2-2----2--2-2----2--2-2----2--2-|-4---4-4-4---4-4-4---4-4-4-4-4--|
|-0----0--0-0----0--0-0----0--0-0----0--0-|-2---2-2-2---2-2-2---2-2-2-2-2--|


  B5                                        N.C.
                                                                      ~
|-----------------------------------------|------------------------------|
|-----------------------------------------|------------------------------|
|-----------------------------------------|------------------------------|
|-9-9-----------------9-9-----------------|--9-9-------------7-7------9--|
|-----10-10-7-7-10-10-----10-10-7-7-10-10-|------9-9-7-7-9-9------9-9----|
|-----------------------------------------|------------------------------|
|
|                                                                     ~
|-----------------------------------------|------------------------------|
|-----------------------------------------|------------------------------|
|-----------------------------------------|------------------------------|
|-----------------------------------------|-10---------------------------|
|-9----9--9-9----9--9-9----9--9-9----9--9-|----------------------10---9--|
|-7----7--7-7----7--7-7----7--7-7----7--7-|--8---------------7-----------|


   Verse II
    Q.=127
    N.C.
   12/8
||--------------------------------------------------------|
||o-------------------------------------------------------|
||--------------------------------------------------------|
||--------------------------------------------------------|
||o-9-----------9-----------9-----------10-10-10-10-10-10-|
||------0---0-------0---0-------0---0---------------------|
|
||--------------------------------------------------------|
||o-------------------------------------------------------|
||--------------------------------------------------------|
||--------------------------------------------------------|
||o-9-9-9-9-9-9-9-9-9-9-9-9-9-9-9-9-9-9-10-----9----10----|
||--------------------------------------------------------|


|---------------------------------------------------------------------------|
|---------------------------------------------------------------------------|
|---------------------------------------------------------------------------|
|---------------------------------------------------------------------------|
|--9-----------------9-----------------9----------------10-10-10-10-10-10---|
|--------0-----0-----------0-----0-----------0-----0------------------------|
|
|---------------------------------------------------------------------------|
|---------------------------------------------------------------------------|
|---------------------------------------------------------------------------|
|---------------------------------------------------------------------------|
|-10-10-10-10-10-10-10-10-10-10-10-10-10-10-10-10-10-10--9----10-----9------|
|---------------------------------------------------------------------------|


|-------------------------------------------------------|
|-------------------------------------------------------|
|-------------------------------------------------------|
|-------------------------------------------------------|
|-9-----------9-----------9-----------10-10-10-10-10-10-|
|-----0---0-------0---0-------0---0---------------------|
|
|-------------------------------------------------------|
|-------------------------------------------------------|
|-------------------------------------------------------|
|-------------------------------------------------------|
|-9-9-9-9-9-9-9-9-9-9-9-9-9-9-9-9-9-9-10-----9----10----|
|-------------------------------------------------------|


|---------------------------------------------------------||
|--------------------------------------------------------o||
|---------------------------------------------------------||
|---------------------------------------------------------||
|-9-----------9-----------9-----------10-10-10-10-10-10--o||
|-----0---0-------0---0-------0---0-----------------------||
|
|---------------------------------------------------------||
|--------------------------------------------------------o||
|---------------------------------------------------------||
|---------------------------------------------------------||
|--------------------------------------------------------o||
|-8-8-8-8-8-8-8-8-8-8-8-8-8-8-8-8-8-8--7------------------||


 Verse III
  B5                      C5                A5
|-------------------------------------------------------|
|-------------------------------------------------------|
|-------------------------------------------------------|
|-------------------------------------------------------|
|-9-----------------------10----------------7-----------|
|-7------------------------8----------------5-----------|
|
|-------------------------------------------------------|
|-------------------------------------------------------|
|-------------------------------------------------------|
|-------------------------------------------------------|
|-9-9-9-9-9-9-9-9-9-9-9-9-10-10-10-10-10-10-7-7-7-7-7-7-|
|-------------------------------------------------------|


  N.C.
|----------------------------------------------------------------|
|----------------------------------------------------------------|
|----------------------------------------------------------------|
|--9----------------------------------10-----------12------------|
|----------------------------------------------------------------|
|--7-----------------------------------8-----------10------------|
|
|----------------------------------------------------------------|
|----------------------------------------------------------------|
|----------------------------------------------------------------|
|----------------------------------------------------------------|
|-10-10-10-10-10-10-10-10-10-10-10-10--7-7-7-7-7-7--7-7-7-7-7-7--|
|----------------------------------------------------------------|


  B5                      C5           A5
|--------------------------------------------------|
|--------------------------------------------------|
|--------------------------------------------------|
|--------------------------------------------------|
|-9-----------------------10-----------7-----------|
|-7------------------------8-----------5-----------|
|
|--------------------------------------------------|
|--------------------------------------------------|
|--------------------------------------------------|
|--------------------------------------------------|
|-7-7-7-7-7-7-7-7-7-7-7-7--7-7-7-7-7-7-7-7-7-7-7-7-|
|--------------------------------------------------|


  N.C.
|----------------------------------------------------|
|----------------------------------------------------|
|----------------------------------------------------|
|-9-----------------------10-----------12------------|
|----------------------------------------------------|
|-7------------------------8-----------10------------|
|
|----------------------------------------------------|
|----------------------------------------------------|
|----------------------------------------------------|
|----------------------------------------------------|
|-5-5-5-5-5-5-5-5-5-5-5-5--5-5-5-5-5-5--5-5-5-5-5-5--|
|----------------------------------------------------|


  N.C.
|-------------------------------------------------------|
|-------------------------------------------------------|
|-------------------------------------------------------|
|-------------------------------------------------------|
|-9-9-9-9-9-9-9-9-9-9-9-9-10-10-10-10-10-10-7-7-7-7-7-7-|
|-------------------------------------------------------|
|
|-------------------------------------------------------|
|-------------------------------------------------------|
|-------------------------------------------------------|
|-------------------------------------------------------|
|-5-5-5-5-5-5-5-5-5-5-5-5--3--3--3--3--3--3-3-3-3-3-3-3-|
|-------------------------------------------------------|


|--------------------------------------------------------------|
|--------------------------------------------------------------|
|--------------------------------------------------------------|
|--------------------------------------------------------------|
|-9-9-9-9-9-9-9-9-9-9-9-9-10-10-10-10-10-10-12-12-12-12-12-12--|
|--------------------------------------------------------------|
|
|--------------------------------------------------------------|
|--------------------------------------------------------------|
|--------------------------------------------------------------|
|--------------------------------------------------------------|
|-3-3-3-3-3-3-3---5---3----2-----------------------------------|
|--------------------------------------------------------------|


|-------------------------------------------------------|
|-------------------------------------------------------|
|-------------------------------------------------------|
|-------------------------------------------------------|
|-9-9-9-9-9-9-9-9-9-9-9-9-10-10-10-10-10-10-7-7-7-7-7-7-|
|-------------------------------------------------------|
|
|-------------------------------------------------------|
|-------------------------------------------------------|
|-------------------------------------------------------|
|-------------------------------------------------------|
|-9-9-9-9-9-9-9-9-9-9-9-9-10-10-10-10-10-10-7-7-7-7-7-7-|
|-------------------------------------------------------|


|--------------------------------------------------------------|
|--------------------------------------------------------------|
|--------------------------------------------------------------|
|--------------------------------------------------------------|
|-9-9-9-9-9-9-9-9-9-9-9-9-10-10-10-10-10-10-12-12-12-12-12-12--|
|--------------------------------------------------------------|
|
|--------------------------------------------------------------|
|--------------------------------------------------------------|
|--------------------------------------------------------------|
|--------------------------------------------------------------|
|-7-7-7-7-7-7-7-7-7-7-7-7--5--5--5--5--5--5--5--5--5--5--5--5--|
|--------------------------------------------------------------|


|-------------------------------------------------------|
|-------------------------------------------------------|
|-------------------------------------------------------|
|-------------------------------------------------------|
|-9-9-9-9-9-9-9-9-9-9-9-9-10-10-10-10-10-10-7-7-7-7-7-7-|
|-------------------------------------------------------|
|
|-------------------------------------------------------|
|-------------------------------------------------------|
|-------------------------------------------------------|
|-------------------------------------------------------|
|-5-5-5-5-5-5-5-5-5-5-5-5--3--3--3--3--3--3-3-3-3-3-3-3-|
|-------------------------------------------------------|


|--------------------------------------------------------------|
|--------------------------------------------------------------|
|--------------------------------------------------------------|
|--------------------------------------------------------------|
|-9-9-9-9-9-9-9-9-9-9-9-9-10-10-10-10-10-10-12-12-12-12-12-12--|
|--------------------------------------------------------------|
|
|--------------------------------------------------------------|
|--------------------------------------------------------------|
|--------------------------------------------------------------|
|--------------------------------------------------------------|
|-3-3-3-3-3-3-3---5---3----2-----------------------------------|
|--------------------------------------------------------------|


   Verse IV
||--------------------------------------------------------|
||o-------------------------------------------------------|
||--------------------------------------------------------|
||--------------------------------------------------------|
||o-9-----------9-----------9-----------10-10-10-10-10-10-|
||------0---0-------0---0-------0---0---------------------|
|
||--------------------------------------------------------|
||o-------------------------------------------------------|
||--------------------------------------------------------|
||--------------------------------------------------------|
||o-9-9-9-9-9-9-9-9-9-9-9-9-9-9-9-9-9-9-10-----9----10----|
||--------------------------------------------------------|


|-------------------------------------------------------------------------|
|-------------------------------------------------------------------------|
|-------------------------------------------------------------------------|
|-------------------------------------------------------------------------|
|--9-----------------9-----------------9----------------10-10-10-10-10-10-|
|--------0-----0-----------0-----0-----------0-----0----------------------|
|
|-------------------------------------------------------------------------|
|-------------------------------------------------------------------------|
|-------------------------------------------------------------------------|
|-------------------------------------------------------------------------|
|-10-10-10-10-10-10-10-10-10-10-10-10-10-10-10-10-10-10--9----10-----9----|
|-------------------------------------------------------------------------|


|-------------------------------------------------------|
|-------------------------------------------------------|
|-------------------------------------------------------|
|-------------------------------------------------------|
|-9-----------9-----------9-----------10-10-10-10-10-10-|
|-----0---0-------0---0-------0---0---------------------|
|
|-------------------------------------------------------|
|-------------------------------------------------------|
|-------------------------------------------------------|
|-------------------------------------------------------|
|-9-9-9-9-9-9-9-9-9-9-9-9-9-9-9-9-9-9-10-----9----10----|
|-------------------------------------------------------|


|---------------------------------------------------------||
|--------------------------------------------------------o||
|---------------------------------------------------------||
|---------------------------------------------------------||
|-9-----------9-----------9-----------10-10-10-10-10-10--o||
|-----0---0-------0---0-------0---0-----------------------||
|
|---------------------------------------------------------||
|--------------------------------------------------------o||
|---------------------------------------------------------||
|---------------------------------------------------------||
|--------------------------------------------------------o||
|-8-8-8-8-8-8-8-8-8-8-8-8-8-8-8-8-8-8--7------------------||


 Break
|----------------------|--------------------------------------|
|----------------------|--------------------------------------|
|----------------------|--------------------------------------|
|----------------------|--------------------------------------|
|-9-----9-----9--------|-9-----9-----9-----10-10-10-10-10-10--|
|---0-0---0-0---0-0----|---0-0---0-0---0-0--------------------|
|
|----------------------|--------------------------------------|
|----------------------|--------------------------------------|
|----------------------|--------------------------------------|
|----------------------|--------------------------------------|
|----------------------|-------------------10-10-10-10-10-10--|
|----------------------|--------------------------------------|


   Verse V
                                                 3x
||-----------------------|-----------------------||
||o----------------------|----------------------o||
||-----------------------|-----------------------||
||-----------------------|-----------------------||
||o-9-----9-----9--------|-9-----9-----9--------o||
||----0-0---0-0---0-0----|---0-0---0-0---0-0-----||
|
|                                                3x
||-----------------------|-----------------------||
||o----------------------|----------------------o||
||-----------------------|-----------------------||
||-----------------------|-----------------------||
||o-9-----9-----9--------|-9-----9-----9--------o||
||----0-0---0-0---0-0----|---0-0---0-0---0-0-----||


|----------------------|----------------------|
|----------------------|----------------------|
|----------------------|----------------------|
|-7-----7-----7--------|-7-----7-----7--------|
|----------------------|----------------------|
|---0-0---0-0---0-0----|---0-0---0-0---0-0----|
|
|----------------------|----------------------|
|----------------------|----------------------|
|----------------------|----------------------|
|----------------------|----------------------|
|-9-----9-----9--------|-9-----9-----9--------|
|---0-0---0-0---0-0----|---0-0---0-0---0-0----|


 Verse VI
  B5                      C5                A5
|-------------------------------------------------------|
|-------------------------------------------------------|
|-------------------------------------------------------|
|-------------------------------------------------------|
|-9-----------------------10----------------7-----------|
|-7------------------------8----------------5-----------|
|
|-------------------------------------------------------|
|-------------------------------------------------------|
|-------------------------------------------------------|
|-------------------------------------------------------|
|-9-9-9-9-9-9-9-9-9-9-9-9-10-10-10-10-10-10-7-7-7-7-7-7-|
|-------------------------------------------------------|


  N.C.
|----------------------------------------------------------------|
|----------------------------------------------------------------|
|----------------------------------------------------------------|
|--9----------------------------------10-----------12------------|
|----------------------------------------------------------------|
|--7-----------------------------------8-----------10------------|
|
|----------------------------------------------------------------|
|----------------------------------------------------------------|
|----------------------------------------------------------------|
|----------------------------------------------------------------|
|-10-10-10-10-10-10-10-10-10-10-10-10--7-7-7-7-7-7--7-7-7-7-7-7--|
|----------------------------------------------------------------|


  B5                      C5           A5
|--------------------------------------------------|
|--------------------------------------------------|
|--------------------------------------------------|
|--------------------------------------------------|
|-9-----------------------10-----------7-----------|
|-7------------------------8-----------5-----------|
|
|--------------------------------------------------|
|--------------------------------------------------|
|--------------------------------------------------|
|--------------------------------------------------|
|-7-7-7-7-7-7-7-7-7-7-7-7--7-7-7-7-7-7-7-7-7-7-7-7-|
|--------------------------------------------------|


  N.C.
|----------------------------------------------------|
|----------------------------------------------------|
|----------------------------------------------------|
|-9-----------------------10-----------12------------|
|----------------------------------------------------|
|-7------------------------8-----------10------------|
|
|----------------------------------------------------|
|----------------------------------------------------|
|----------------------------------------------------|
|----------------------------------------------------|
|-5-5-5-5-5-5-5-5-5-5-5-5--5-5-5-5-5-5--5-5-5-5-5-5--|
|----------------------------------------------------|


  N.C.
|-------------------------------------------------------|
|-------------------------------------------------------|
|-------------------------------------------------------|
|-------------------------------------------------------|
|-9-9-9-9-9-9-9-9-9-9-9-9-10-10-10-10-10-10-7-7-7-7-7-7-|
|-------------------------------------------------------|
|
|-------------------------------------------------------|
|-------------------------------------------------------|
|-------------------------------------------------------|
|-------------------------------------------------------|
|-5-5-5-5-5-5-5-5-5-5-5-5--3--3--3--3--3--3-3-3-3-3-3-3-|
|-------------------------------------------------------|


|--------------------------------------------------------------|
|--------------------------------------------------------------|
|--------------------------------------------------------------|
|--------------------------------------------------------------|
|-9-9-9-9-9-9-9-9-9-9-9-9-10-10-10-10-10-10-12-12-12-12-12-12--|
|--------------------------------------------------------------|
|
|--------------------------------------------------------------|
|--------------------------------------------------------------|
|--------------------------------------------------------------|
|--------------------------------------------------------------|
|-3-3-3-3-3-3-3---5---3----2-----------------------------------|
|--------------------------------------------------------------|


|-------------------------------------------------------|
|-------------------------------------------------------|
|-------------------------------------------------------|
|-------------------------------------------------------|
|-9-9-9-9-9-9-9-9-9-9-9-9-10-10-10-10-10-10-7-7-7-7-7-7-|
|-------------------------------------------------------|
|
|-------------------------------------------------------|
|-------------------------------------------------------|
|-------------------------------------------------------|
|-------------------------------------------------------|
|-9-9-9-9-9-9-9-9-9-9-9-9-10-10-10-10-10-10-7-7-7-7-7-7-|
|-------------------------------------------------------|


|--------------------------------------------------------------|
|--------------------------------------------------------------|
|--------------------------------------------------------------|
|--------------------------------------------------------------|
|-9-9-9-9-9-9-9-9-9-9-9-9-10-10-10-10-10-10-12-12-12-12-12-12--|
|--------------------------------------------------------------|
|
|--------------------------------------------------------------|
|--------------------------------------------------------------|
|--------------------------------------------------------------|
|--------------------------------------------------------------|
|-7-7-7-7-7-7-7-7-7-7-7-7--5--5--5--5--5--5--5--5--5--5--5--5--|
|--------------------------------------------------------------|


|-------------------------------------------------------|
|-------------------------------------------------------|
|-------------------------------------------------------|
|-------------------------------------------------------|
|-9-9-9-9-9-9-9-9-9-9-9-9-10-10-10-10-10-10-7-7-7-7-7-7-|
|-------------------------------------------------------|
|
|-------------------------------------------------------|
|-------------------------------------------------------|
|-------------------------------------------------------|
|-------------------------------------------------------|
|-5-5-5-5-5-5-5-5-5-5-5-5--3--3--3--3--3--3-3-3-3-3-3-3-|
|-------------------------------------------------------|


|--------------------------------------------------------------|
|--------------------------------------------------------------|
|--------------------------------------------------------------|
|--------------------------------------------------------------|
|-9-9-9-9-9-9-9-9-9-9-9-9-10-10-10-10-10-10-12-12-12-12-12-12--|
|--------------------------------------------------------------|
|
|--------------------------------------------------------------|
|--------------------------------------------------------------|
|--------------------------------------------------------------|
|--------------------------------------------------------------|
|-3-3-3-3-3-3-3---5---3----2-----------------------------------|
|--------------------------------------------------------------|


 Outro
|---------------------------------------------|
|---------------------------------------------|
|---------------------------------------------|
|---------------------------------------------|
|-9-----------9-----------9-------------------|
|-----0---0-------0---0-------0---0-----------|
|
|---------------------------------------------|
|---------------------------------------------|
|---------------------------------------------|
|---------------------------------------------|
|-9-9-9-9-9-9-9-9-9-9-9-9-9-9-9-9-9-9-10-9-10-|
|---------------------------------------------|


                                      F5E5
|-----------------------------------------------*|
|-----------------------------------------------*|
|-----------------------------------------------*|
|-----------------------------------------------*|
|--9-----------------9----------------9---------*|
|--------0-----0-----------0-----0------0-0-----*|
|
|-----------------------------------------------*|
|-----------------------------------------------*|
|-----------------------------------------------*|
|-----------------------------------------------*|
|-10-10-10-10-10-10-10-10-10-10-10-10-3-2-2-----*|
|-------------------------------------1-0-0-----*|
Добавлено: 08.09.2013
Другие материалы по этой песне:

Страница создана 09.03.2012
http://primanota.ru/at-the-gates/raped-by-the-light-of-christ-chords.htm
Привет, Гость.
Предлагаем пройти революционный курс по гитаре.
Подарок от PrimaNota.Ru, забирай!