PrimaNota.ru - самый крупный в мире бесплатный архив песенных текстов, аккордов, табулатур и нот


At The Drive-in - Sleepwalk Capsules - аккорды и текст, таба, видео

Регистрация Запомнить меня
Войти через:  Facebook Google Twitter Vk Yandex Mail.ru

At The Drive-in - Sleepwalk Capsules - аккорды и текст, таба, видео

Печатать
Просмотров: 157
Уроки эстрадного вокала в Санкт-Петербурге
Авторы: Omar Rodriguez‐Lopez, Paul Hinojos, Cedric Bixler‐Zavala, Tony Hajjar, Jim Ward

Sleepwalk Capsules
At The Drive-in
Artist: At The Drive-In
Song: Sleepwalk Capsules
Album: Relationship of Command
Tab: Casey George(talcum420@yahoo.com)

Notes:
   This is not the complete tab for this song because
I am to lazy to tab
out the rest but this is more of an idea for you to
figure the rest of the
song out yourself.  If you can't figure the song out
yourself you probably
shouldn't be playing it anyway.  And by the way a lot
of this could be wrong
because I figured it out on acoustic guitar, but it
sounds nice anyway.

                                                -Casey
George


Verses:
   1       2       3       4          1       2      
3       4
e|-10--10------------------10--10---:-10--10------------------10--10---|
B|-8---8-------------------8---8----:-8---8-------------------9---8----|
G|-9---9-------------------9---9----:-9---9-------------------8---9----|
D|-7---7-------------------7---7----:-7---7-------------------7---7----|
A|-0---0-------------------0---0----:-0---0-------------------0---0----|
E|----------------------------------:----------------------------------|
           Tasser, Tasser  Kinder -   garten      nap 
nap    time!

   1       2       3       4          1       2      
3       4
e|-9---9---9---9---9---7-------7----:-----9-------9---9---10-----------|
B|-8---8---8---8---8---8-------8----:-----8-------8---8---8------------|
G|-9---9---9---9---9---9-------9----:-----9-------9---9---9------------|
D|-7---7---7---7---7---7-------7----:-----7-------7---7---7------------|
A|-0---0---0---0---0---0-------0----:-----0-------0---0---0------------|
E|----------------------------------:----------------------------------|
   Pacify, Pacify...

Chorus:
   1       2       3       4          1       2      
3       4
e|----------------------------------:----------------------------------|
B|-8---8---8---8---8---8---8---8----:-7---7---7---7---7---7---7---7----|
G|-7---7---7---7---7---7---7---7----:-7---7---7---7---7---7---7---7----|
D|-0---0---0---0---0---0---0---0----:-0---0---0---0---0---0---0---0----|
A|-7---7---7---7---7---7---7---7----:-5---5---5---5---5---5---5---5----|
E|----------------------------------:----------------------------------|

   1       2       3       4          1       2      
3       4
e|----------------------------------:----------------------------------|
B|----------------------------------:----------------------------------|
G|-5---5---5---5---5---5---5---5----:-5---5---5---5---5---5---5---5----|
D|-5---5---5---5---5---5---5---5----:-5---5---5---5---5---5---5---5----|
A|-3---3---3---3---3---3---3---3----:-3---3---3---3---3---3---3---3----|
E|----------------------------------:----------------------------------|

If anyone feels the need to update or add on to this
tab please do so
because I am far to lazy to tab it out myself.  Or if
you are lazy as well
just email me the corrections and I will do it.   talcum420@yahoo.com>
     
Добавлено: 20.08.2013
Другие материалы по этой песне:

Страница создана 03.04.2012
http://primanota.ru/at-the-drive-in/sleepwalk-capsules-chords.htm
Привет, Гость.
Предлагаем пройти революционный курс по гитаре.
Подарок от PrimaNota.Ru, забирай!