PrimaNota.ru - самый крупный в мире бесплатный архив песенных текстов, аккордов, табулатур и нот


At The Drive-in - Schaffino - текст песни, таба, видео

Регистрация Запомнить меня
Войти через:  Facebook Google Twitter Vk Yandex Mail.ru

At The Drive-in - Schaffino - текст песни, таба, видео

Печатать
Просмотров: 129
-----------------------------------------------------------------------------
                             Shcaffino  - At The Drive-In
-----------------------------------------------------------------------------
Tabbed by: Benny Fury
Email:

Tuning: Standard

I hope this reads ok, it's a pretty simple song, and picking up the structure should be 
breeze if you're playing along to the song. All the parts you need are here.

I reckon these always look best if you copy and past into a word document and select all 
to Courier New font, and font size 8 or 6.

Intro

e|---0-----0-0-0--------0-----0--------------------------------------------|
B|---0-----0-0-0--------0-----0--------------------------------------------|
G|---6-----9-9-9-------14----13----X how every many times necessary--------|
D|-------------------------------------------------------------------------|
A|-------------------------------------------------------------------------|
E|-------------------------------------------------------------------------|

Second guitar comes in a after a few repeats of that intro.

e|-0--x--4--x--x--x--------------------------------------------------------|
B|-0--x--5--x--x--x--------------------------------------------------------|
G|-1--x--4--x--7--x--6-----------------------------------------------------|
D|-2--x--6--x--x--x--7-----------------------------------------------------|
A|-2--x--4--x--5--x--7-----------------------------------------------------|
E|-0-----------------5-----------------------------------------------------|

Then you just strum out the same chord pattern for a bit.

e|-0---------------------4-------------------------------------------------|
B|-0---------------------5-------------------------------------------------|
G|-1--(roughly 11 times)-4-etc-7---6---------------------------------------|
D|-2---------------------6-----x---7---------------------------------------|
A|-2---------------------4-----5---7---------------------------------------|
E|-0-------------------------------5---------------------------------------|

Verse you just strum this chord a bunch of times

e|-------------------------------------------------------------------------|
B|-------------------------------------------------------------------------|
G|-9-9-9-------------------------------------------------------------------|
D|-9-9-9-------------------------------------------------------------------|
A|-7-7-7-------------------------------------------------------------------|
E|-------------------------------------------------------------------------|

Then it goes back into the original chord structure, just played a bit quicker.

e|-0---4-------------------------------------------------------------------|
B|-0---5-------------------------------------------------------------------|
G|-1---4---7---6-----------------------------------------------------------|
D|-2---6---x---7-----------------------------------------------------------|
A|-2---4---5---7-----------------------------------------------------------|
E|-0-----------5-----------------------------------------------------------|

Chorus

e|-------------------------------------------------------------------------|
B|-------------------------------------------------------------------------|
G|-11-----------------------------------6----------------------------------|
D|-11-(strummed quickly)--12-12--12-12--7-(strum the a chord, repeat)------|
A|-9----------------------12-12--12-12--7----------------------------------|
E|------------------------10-10--10-10--5----------------------------------|



Then just strum the E5 again

e|-------------------------------------------------------------------------|
B|-------------------------------------------------------------------------|
G|-9-9-9-------------------------------------------------------------------|
D|-9-9-9-------------------------------------------------------------------|
A|-7-7-7-------------------------------------------------------------------|
E|-------------------------------------------------------------------------|

The bridge is like this for a little bit

E|-------------------------------------------------------------------------|
B|-------------------0-----------------------------------------------------|
G|-0-----------4-----0-----------------------------------------------------|
D|-4-----0-----5-----4-----------------------------------------------------|
A|-5-----4-----------5-----------------------------------------------------|
E|-------5-----------------------------------------------------------------|

Then it breaks into octaves

e|-------------------------------------------------------------------------|
B|-------------------------------------------------------------------------|
G|-9---------12--------------------------------11--------------------------|
D|-x-(strum)-x--(hit this like once or twice)--x--(strum, then repeat)-----|
A|-7---------10--------------------------------9---------------------------|
E|-------------------------------------------------------------------------|

Then it goes back into the chorus, and you finishing on strumming that E5 at the 7th 
Pretty darn simple really. Being an earlier ATDI song I guess they hadn't gotten to crazy 
quite yet.


| /  slide up
| \  slide down
| h  hammer-on
| p  pull-off
| ~  vibrato
| +  harmonic
| x  Mute note
=============================================================================
Добавлено: 06.04.2012
Другие материалы по этой песне:
  • Аккорды и текст

Страница создана 12.03.2012
http://primanota.ru/at-the-drive-in/schaffino-chords.htm
Привет, Гость.
Предлагаем пройти революционный курс по гитаре.
Подарок от PrimaNota.Ru, забирай!