PrimaNota.ru - самый крупный в мире бесплатный архив песенных текстов, аккордов, табулатур и нот


At The Drive-in - Plastic Memories - таба, видео

Регистрация Запомнить меня
Войти через:  Facebook Google Twitter Vk Yandex Mail.ru

At The Drive-in - Plastic Memories - таба, видео

Печатать
Просмотров: 189
Уроки эстрадного вокала в Санкт-Петербурге
At The Drive In - Plastic Memories


Intro:

Gtr.1-repeat this until 1:01

|-------------------------------------|
|-------------------------------------|
|-1-1-1-1-1-1-1-1---1-1-1-1-1-1-1-1---|
|-2-2-2-2-2-2-2-2---2-2-2-2-2-2-2-2---|
|-2-2-2-2-2-2-2-2---3-3-3-3-3-3-3-3---|
|-----------------0-----------------0-|

Gtr.2-starts at 0:12

|---------------------------------|
|---------------------------------|
|-1-1-1-1-1-1-1-1-----------------|x4
|-2-2-2-2-2-2-2-2/6-6-6-6-6-6-6-6-|
|-2-2-2-2-3-3-3-3/7-7-7-7-7-7-7-7-|
|---------------------------------|

|-------------------------------------|
|-------------------------------------|
|-1-1-1-1-1-1-1-1---1-1-1-1-1-1-1-1---|x2
|-2-2-2-2-2-2-2-2---2-2-2-2-2-2-2-2---|
|-2-2-2-2-2-2-2-2---3-3-3-3-3-3-3-3---|
|-----------------0-----------------0-|

|--------------------------------|
|--------------------------------|
|-1-1-1-1-1-1-1------------------|x3
|-2-2-2-2-2-2-2-4--4-4-4-4-4-4-4-|
|-2-2-2-2-2-2-2-3--3-3-3-3-3-3-3-|
|--------------------------------|

Both guitars:

|----|
|----|
|-1--|
|-2--|
|-2--|
|----|



Chorus:

Both guitars:

|-------------------------------|
|-------------------------------|
|---------------------6-7-7-7-7-|
|-7-7-7-7-7-7-7-7-4-4-6-7-7-7-7-|
|-7-7-7-7-7-7-7-7-4-4-4-5-5-5-5-|
|-5-5-5-5-5-5-5-5-2-2-----------|

|---------------------------|
|---------------------------|
|-1-1-1-1-1-1-1-1-1-1-1-1-1-|x4
|-2-2-2-2-2-2-2-2-2-2-2-2-2-|
|-2-2-2-2-2-2-3-3-3-3-3-3-3-|
|---------------------------|

|-------------------------------|
|-------------------------------|
|---------------------6-7-7-7-7-|
|-7-7-7-7-7-7-7-7-4-4-6-7-7-7-7-|
|-7-7-7-7-7-7-7-7-4-4-4-5-5-5-5-|
|-5-5-5-5-5-5-5-5-2-2-----------|

|---------------------------|
|---------------------------|
|-1-1-1-1-1-1-1-1-1-1-1-1-1-|x4
|-2-2-2-2-2-2-2-2-2-2-2-2-2-|
|-2-2-2-2-2-2-3-3-3-3-3-3-3-|
|---------------------------|

|-------------------------------|
|-------------------------------|
|---------------------6-7-7-7-7-|
|-7-7-7-7-7-7-7-7-4-4-6-7-7-7-7-|
|-7-7-7-7-7-7-7-7-4-4-4-5-5-5-5-|
|-5-5-5-5-5-5-5-5-2-2-----------|

|---------------------------|
|---------------------------|
|-1-1-1-1-1-1-1-1-1-1-1-1-1-|x2
|-2-2-2-2-2-2-2-2-2-2-2-2-2-|
|-2-2-2-2-2-2-3-3-3-3-3-3-3-|
|---------------------------|



Bridge:

Both guitars:

|-----------------------------------------------------------------|
|-----------------------------------------------------------------|
|-2-2-2-2-2-2-2-2-4-4-4-4-4-4-4-4-5-5-5-5-5-5-5-5-7-7-7-7-7-7-7-7-|x4
|-2-2-2-2-2-2-2-2-4-4-4-4-4-4-4-4-5-5-5-5-5-5-5-5-7-7-7-7-7-7-7-7-|
|-0-0-0-0-0-0-0-0-2-2-2-2-2-2-2-2-3-3-3-3-3-3-3-3-5-5-5-5-5-5-5-5-|
|-----------------------------------------------------------------|

Gtr.1

|-------------------------|
|-------------------------|
|-9---7---0-0-0-0-0-0-0-0-|x4
|-9-7-7-5-2-2-2-2-2-2-2-2-|
|-7-7-5-5-3-3-3-3-3-3-3-3-|
|---5---3-----------------|

Gtr.2

|---------------|
|---------------|
|-9-------------|x4
|-9-7-5-7-5-4-2-|
|-7-7-5-7-5-4-3-|
|---5-3-5-3-2-3-|



Verse again:

Gtr.1

|-------------------------------|
|-------------------------------|
|-1-1-1-1-1-1-1-1-1-1-1-1-1-1-1-|x4
|-2-2-2-2-2-2-2-2-2-2-2-2-2-2-2-|
|-2-2-2-2-2-2-2-3-3-3-3-3-3-3-3-|
|-------------------------------|

Gtr.2


|--------------------------------|
|--------------------------------|
|-1-1-1-1-1-1-1------------------|x4
|-2-2-2-2-2-2-2-4-4-4-4-4-4-4-4--|
|-2-2-2-2-2-2-2-3-3-3-3-3-3-3-3--|
|--------------------------------|


Chorus again:


|-------------------------------|
|-------------------------------|
|---------------------6-7-7-7-7-|
|-7-7-7-7-7-7-7-7-4-4-6-7-7-7-7-|
|-7-7-7-7-7-7-7-7-4-4-4-5-5-5-5-|
|-5-5-5-5-5-5-5-5-2-2-----------|

|---------------------------|
|---------------------------|
|-1-1-1-1-1-1-1-1-1-1-1-1-1-|x4
|-2-2-2-2-2-2-2-2-2-2-2-2-2-|
|-2-2-2-2-2-2-3-3-3-3-3-3-3-|
|---------------------------|

|-------------------------------|
|-------------------------------|
|---------------------6-7-7-7-7-|
|-7-7-7-7-7-7-7-7-4-4-6-7-7-7-7-|
|-7-7-7-7-7-7-7-7-4-4-4-5-5-5-5-|
|-5-5-5-5-5-5-5-5-2-2-----------|

|---------------------------|
|---------------------------|
|-1-1-1-1-1-1-1-1-1-1-1-1-1-|x2
|-2-2-2-2-2-2-2-2-2-2-2-2-2-|
|-2-2-2-2-2-2-3-3-3-3-3-3-3-|


Bridge again:


Gtr.1

|-------------------------|
|-------------------------|
|-9---7---0-0-0-0-0-0-0-0-|x4
|-9-7-7-5-2-2-2-2-2-2-2-2-|
|-7-7-5-5-3-3-3-3-3-3-3-3-|
|---5---3-----------------|

Gtr.2

|---------------|
|---------------|
|-9-------------|x4
|-9-7-5-7-5-4-2-|
|-7-7-5-7-5-4-3-|
|---5-3-5-3-2-3-|

Both guitars:

|----|
|----|
|-1--|
|-2--|
|-2--|
|----|



Outro:

Gtr.1-starts at 3:53

|------------------------------------------------|
|------------------------------------------------|
|------------6-------------------------------6---|
|----------9---9--7p6h7p6---9--------------9---9-|
|--------7----------------7--------------7-------|
|-/7~--8----------------------8---/7~--8---------|

Gtr.2 starts at 3:43

|-----------------------------|
|-----------------------------|
|-1-1-1-1-1-1-1-1-1-1-1-1-1-1-|x5
|-2-2-2-2-2-2-2-2-2-2-2-2-2-2-|
|-2-2-2-2-2-2-2-3-3-3-3-3-3-3-|
|-----------------------------|

|----|
|----|
|-1--|
|-2--|
|-2--|
|----|


The end.
Добавлено: 03.03.2016
Другие материалы по этой песне:
  • Аккорды и текст

Страница создана 03.03.2016
http://primanota.ru/at-the-drive-in/plastic-memories-chords.htm
Привет, Гость.
Предлагаем пройти революционный курс по гитаре.
Подарок от PrimaNota.Ru, забирай!