PrimaNota.ru - самый крупный в мире бесплатный архив песенных текстов, аккордов, табулатур и нот


At The Drive-in - Hourglass - текст песни, таба, видео

Регистрация Запомнить меня
Войти через:  Facebook Google Twitter Vk Yandex Mail.ru

At The Drive-in - Hourglass - текст песни, таба, видео

Печатать
Просмотров: 112
Title: Hourglass
Band: At the Drive-In
Album: In/Casino/Out
Tabbed By: Eric Hague (x47point5@hotmail.com)
 
this is my own work.
normal tuning
Chords used:
 
   Am F  C  D
 
e|-0--1--0--2-|
b|-1--1--1--3-|
g|-2--2--0--2-|
D|-2--3--2--0-|
A|-0-----3----|
E|------------|
 
Verse:
 
Am F C
 
Chorus:
 

e|-2--12/10/8--------------0--------5/2/5-|
b|-3-----------------------1--------------|
g|-2-----------------------2--------------|
D|-0-----------------------2--------------|
A|-------------------------0--------------|
E|----------------------------------------|
          I'm all alone so far up here
 
Outro:
 
Guitar 1 w/ distortion:
 
Am F C
 
Guitar 2 w/ distortion then clean:
 
e|-----5-------5-------3-------3-------3-------3-------0-------0---|
b|---5---5---5---5---1---1---1---1---3---3---3---3---0---0---0---0-|
g|---------------------------------5-------5-------5-------5-------|
D|-7-------7-------3-------3---------------------------------------|
A|-----------------------------------------------------------------|
E|-----------------------------------------------------------------|
 
end song by bending the last open b above the nut or between
saddle and bridge if possible.

     
Добавлено: 03.11.2013
Другие материалы по этой песне:
  • Аккорды и текст

Страница создана 28.05.2012
http://primanota.ru/at-the-drive-in/hourglass-chords.htm
Привет, Гость.
Предлагаем пройти революционный курс по гитаре.
Подарок от PrimaNota.Ru, забирай!