PrimaNota.ru - самый крупный в мире бесплатный архив песенных текстов, аккордов, табулатур и нот


At The Drive-in - El Gran Orgo - таба, видео

Регистрация Запомнить меня
Войти через:  Facebook Google Twitter Vk Yandex Mail.ru

At The Drive-in - El Gran Orgo - таба, видео

Печатать
Просмотров: 83
this is the tab for the ep El Gran Orgo.  Guitar 1 is the left speaker, guitar 2 is the right.
Jim didnt play guitar on this cd(he was kicked out of the band then but later obviosly returned)
so i dont know who guitar 2 is but omar is guitar 1. Enjoy and rate.


                               -El Gran Orgo-

-----------------------------------------------------------------------
1. Give it a Name
-----------------------------------------------------------------------

Guitar 1 - Standard Tuning

Intro

e--------------------------------|---------------------------------|
b--------------------------------|---------------------------------|
g-5--7-5--4-7--5--4--------------|-----9--------5---------2--------| (x2)
d-x--x-x--x-x--x--x--------------|-----x--------x---------x--------|
a-3--5-3--2-5--3--2--------------|-----7--------3---------0--------|
E--------------------------------|---------------------------------|

Pre verse

e----------------------------|
b----------------------------|
g-10/99999999-10-9-10-12~----|
d--x/xxxxxxxx-x--x-x--x------|
a--8/77777777-8--7-8--10~----|
E----00000000----------------|

Verse

e-----------------------------------|
b-----------------------------------|
g-10-9-7-9-10-9-7--10-9-10-12/14~---|
d-x--x-x-x-x--x-x--x--x-x--x-/x-----|
a-8--7-5-7-8--7-5--8--7-8--10/12~---|
E-----------------------------------|

e-----------------------------------|
b-----------------------------------|
g-10-9-7-9-10-9-7--10-9-10-5/4~-----|
d-x--x-x-x-x--x-x--x--x-x--x/x------|
a-8--7-5-7-8--7-5--8--7-8--3/2~-----|
E-----------------------------------|

Chorus

e---2---1-----2------------------------|
b-1-2-1-x---1-2---6-5-6-5-6-5-6-5------|
g-0-0-2-2---0-0-------------------5----|
d-2-x-2-3---2-x------------------------|
a-3-2-0-----3-2------------------------|
E---3---------3------------------------|

Interlude "dont know what you got till its gone"

e---------------|
b---------------|
g---------------|
d-10~~~---7-----|
a-10~~~---7-----| (x4)
E-8~~~~---5-----|

e-----------------------------------------|
b-----------------------------------------|
g-----------------------------------------|
d-10-5-2-3-------5-3~~~-------------------|
a-10-5-2-3--(x3)-5-3~~~---7-8-10-8-7-8----|
E-8--3-0-1-------3-1~~~-------------------|

after that everything repeats then this riff for outro

e-0---0---0------------|
b---1---1---1----------|
g-----2---2---2--------|
d----------------------|
a----------------------|
E----------------------|

Guitar 2 - Standard Tuning

Intro

e--------------------------------|---------------------------------|
b--------------------------------|---------------------------------|
g-5--7-5--4-7--5--4--------------|-----9--------5---------2--------| (x2)
d-x--x-x--x-x--x--x--------------|-----x--------x---------x--------|
a-3--5-3--2-5--3--2--------------|-----7--------3---------0--------|
E--------------------------------|---------------------------------|

Pre Verse

e-----------------------|
b-----------------------|
g-----------------------|
d-10--7~-7-7-7--7-5-10--|
a-10--7~-7-7-7--7-5-10--|
E-8---5~-5-5-5--5-3-8---|

Verses -  strum these chords clean

e-1-------2-1---|
b-0-1-1-1-2-0---|
g-2-2-0-2-0-2---|
d-3-2-2-2-x-3---|
a---0-3-0-2-----|
E---------3-----|

Chorus

e---2---1-----2-1-----------------------|
b-1-2-1-x---1-2-x-----------------------|
g-0-0-2-2---0-0-2-----------------------|  (x2)
d-2-x-2-3---2-x-3-----------------------|
a-3-2-0-----3-2-------------------------|
E---3---------3-------------------------|


Interlude "dont know what you got till its gone"

e---------------------------|
b---------------------------|
g---------------------------|
d-10-x-10-x-10-x--10--7-----|
a-10-x-10-x-8--x--10--7-----| (x4)
E-8--x-8--x-8--x--8---5-----|

e-----------------------------------------|
b-----------------------------------------|
g-----------------------------------------|
d-10-5-2-3-------5-3~~~-------------------|
a-10-5-2-3--(x3)-5-3~~~---7-8-10-8-7-8----|
E-8--3-0-1-------3-1~~~-------------------|

Outro

e-0---0---0------------|
b---1---1---1----------|
g-----2---2---2--------|
d----------------------|
a----------------------|
E----------------------|

Thats it

--------------------------------------------------------------------------
2. Honest To a Fault
--------------------------------------------------------------------------

Guitar 1 - Standard Tuning

Intro/Chorus

e----------------|
b----------------|
g------777777----|
d-4444-777777----|
a-4444-555555----|
E-2222-----------|

Verses

e----------------------------------------|
b----------------------------------------|
g--6-6-6-6-7-7-7-7-6-6-6-6-12-11-11-9-9--|
d--x-x-x-x-x-x-x-x-x-x-x-x--x--x--x-x-x--|
a--4-4-4-4-5-5-5-5-4-4-4-4-10--9--9-7-7--|
E----------------------------------------|
2nd time through
e----------------------------------------|
b----------------------------------------|
g--6-6-6-6-7-7-7-7-6-6-6-6-4-4-4-4-4-----|
d--x-x-x-x-x-x-x-x-x-x-x-x-x-x-x-x-x-----|
a--4-4-4-4-5-5-5-5-4-4-4-4-2-2-2-2-2-----|
E----------------------------------------|

Bridge thing

e------------------------------------------|
b------------------------------------------|
g---11--------11--------11--------11-------|
d-9----11--11----11--12----11--11----11----|
a------------------------------------------|
E------------------------------------------|

thats it

Guitar 2 - standard tuning

Intro/Chorus

e----------------|
b----------------|
g------777777----|
d-4444-777777----|
a-4444-555555----|
E-2222-----------|

Verses

e-----------------------------------|
b-----------------------------------|
g--------------------------7-77-77--|
d--7-77-77-9-99-99-4-44-44-7-77-77--|
a--7-77-77-9-99-99-4-44-44-5-55-55--|
E--5-55-55-7-77-77-2-22-22----------|
2nd time through
e-----------------------------------|
b-----------------------------------|
g-----------------------------------|
d--7-77-77-9-99-99-4-44-44-444444---|
a--7-77-77-9-99-99-4-44-44-444444---|
E--5-55-55-7-77-77-2-22-22-222222---|

Bridge

e---------------------------------------|
b---10------10-------10--------10-------|
g---------------------------------------|
d-9----9-11----11-12-----12-11-----11---|
a---------------------------------------|
E---------------------------------------|
Thats All

---------------------------------------------------------------------------
3. Winter Month Novelty
---------------------------------------------------------------------------

Guitar 1 - Standard Tuning

Intro

e-----------------------------|
b-----------------------------|
g------4-----4---4------------|
d-----------------------------|
a--3-3---3-3---3--------------|
E-----------------------------|
pm............................

Verse

e-----------------------------------------------------|
b--2-22-2-22-2-2-22-------------3-33-3------5-55-5----|
g--------------------------0-00-0-00-0-0-00-0-00-0----|
d--0-00-0-00-0-0-00-2-22-4-4-44--------4-44-----------|
a-----------------------------------------------------|
E-----------------------------------------------------|

Chorus

e---------------|
b---------------|
g-7--4----------|
d-7--4--7--5----|
a-5--2--7--5----|
E-------5--3----|

Interlude "bite the hand that feeds"

e------------------------------------------------------|
b------------------------------------------------------|
g--5--------------7---------------9---------------9----|
d--5--------------7---------------9---------------9----|
a--3--------------5---------------7---------------7----|
E------------------------------------------------------|

Next Interlude thing "bite the hand that feeds" (2nd one)

e------|
b------|
g-9----|
d-9----|  keep strumming
a-7----|
E------|

Outro "swallow your refills!"

e-----
b-----
g-9---
d-x---
a-7---
E-----
Thats all

Guitar 2 - Standard Tuning

Intro

e---------------3--------------------------------------------|
b----------------3----------------------------------0--------|
g--5---4-~~~~~----4---5---4-~~-4---4-4-4--4-4-4-----0---4~---|
d--5---5--------------5---5----5---5-5-5--5-5-5-----2-5~-----|
a--3---3--------------3---3----3---3-3-3--3-3-3-----2--------|
E-----------------------------------------------0-0-0--------|

Verses

e-----------------------------------------------------|
b--------------10-12-10-------------------------------|
g--6-66-7-77-7-0--0--0--------------------------------|
d--0-00-0-00-0-0--0--0--------------------------------|
a--0-00-0-00-0-0--0--0--------------------------------|
E-----------------------------------------------------|

Chorus

e--------------------------19----19----19------------|
b--12----12----12-------------19----19---19----------|
g-----11----11---11----------------------------------|
d----------------------------------------------------|
a----------------------------------------------------|
E----------------------------------------------------|

Interlude - " bite the hand that feeds"

e-------------------|
b-0~----------------|
g-0~------4~~~------|
f-2~---5~~~---------|
a-2~----------------|
E-0~----------------|

2nd Interlude

e------------------------------------------------------|
b------------------------------------------------------|
g--12---11-------12---11----------9--------------------|
d---x----x--------x----x----------x---------------9----|  x2
a--10----9-------10----9----------7---------------x----|
E-------------------------------------------------7----|

e--------------------------------------------------------|
b--------------------------------------------------------|
g-12---14-------12---14---------17---16---------17---16--|
d--x----x--------x----x----------x----x----------x----x--|
a-10---12-------10---12---------15---14---------15---14--|
E--------------------------------------------------------|

e---------------------------------------------------------|
b---------------------------------------------------------|
g--12------------11--------7-9---12-11--9
Добавлено: 20.02.2014
Другие материалы по этой песне:
  • Аккорды и текст

Страница создана 20.02.2014
http://primanota.ru/at-the-drive-in/el-gran-orgo-chords.htm
Привет, Гость.
Предлагаем пройти революционный курс по гитаре.
Подарок от PrimaNota.Ru, забирай!