PrimaNota.ru - самый крупный в мире бесплатный архив песенных текстов, аккордов, табулатур и нот


At The Drive In - Relationship Of Command - таба, видео

Регистрация Запомнить меня
Войти через:  Facebook Google Twitter Vk Yandex Mail.ru

At The Drive In - Relationship Of Command - таба, видео

Печатать
Просмотров: 134
This is the whole tab for At the Drive-in'album Relationship of command.  For the tabbing
the right speaker is guitar 2 which is Jim.  The left Speaker is Guitar 1 which is omar.
each guitar will be tabbed out. Enjoy. At the Drive-in was-Jim Ward, Omar Rodriguez, Paul
Hinijos, Cedric Bixler & Tony Hajjar.

                             -Relationship of Command-


---------------------------------------------------------------------------
1.Arc Arsenal
---------------------------------------------------------------------------
Guitar 1 - Omar - Standard Tuning
Intro
e----------15------------|
b----15-14----15--17-----|
g------------------------|
d------------------------|   -keep repeating
a------------------------|
E------------------------|

Fill thing before the next riff

e--19--|
b--19--|
g--19--|
d------|
a------|
E------|

Next Intro riff

e----------------------------------------------------------------|
b-12-12-12-12-12-12-xxxxxxxx-12-12-12-12-12-12-xxxxxxxx----------|
g-x--x--x--x--x--x--xxxxxxxx-x--x--x--x--x--x--xxxxxxxx----------|
d-14-14-14-14-14-14-xxxxxxxx-14-14-14-14-14-14-xxxxxxxx----------|
a----------------------------------------------------------------|
E----------------------------------------------------------------|

Verse

e-------------------------------------------------------12-----------------------------|
b-12-------12----------12-------12----------12-------12----12-----12-------12----------|
g----14-------12-11-12----14-------12-11-12----14-------------12-----14-------12-11-12-|
d-------14-------------------14-------------------14--------------------14-------------|
a--------------------------------------------------------------------------------------|
E--------------------------------------------------------------------------------------|

Chorus

e----------------------------------------------------------------|
b-12-12-12-12-12-12-xxxxxxxx-12-12-12-12-12-12-xxxxxxxx----------|
g-x--x--x--x--x--x--xxxxxxxx-x--x--x--x--x--x--xxxxxxxx----------|
d-14-14-14-14-14-14-xxxxxxxx-14-14-14-14-14-14-xxxxxxxx----------|
a----------------------------------------------------------------|
E----------------------------------------------------------------|

Next part after second verse

e------------------------------------------------------------------|
b------------------------------------------------------------------|
g-----7-7-7-7-7-7-7-7-----9-9-9-9-9-9-9-9--------------------------|
d-5-4-7-7-7-7-7-7-7-7-5-4-9-9-9-9-9-9-9-9--------------------------|
a-----5-5-5-5-5-5-5-5-----7-7-7-7-7-7-7-7--------------------------|
E------------------------------------------------------------------|

Next Part

e-----------------------------------------------------------------------------------------|
b-----------------------------------------------------------------------------------------|
g-----------------------------------------------------------------------------------------|
d-----------------------------------------------------------------------------------------|
a--------12-------12---12-------10-------10---10-------9--------9---9-------7-------7---7-|
E--0-0-0----0-0-0----0----0-0-0----0-0-0----0----0-0-0----0-0-0---0---0-0-0---0-0-0---0---|

After that everything just repeats.

Guitar 2 - Jim - Standard Tuning

Intro

e-----------------------------------------------------------------------|
b-------------------------------12-----------12--------15-14--(x2)------|
g----------------------------------14-11-14-----14-11-------------------|
d-4-5-4-------4-5-4-----------------------------------------------------|
a--------5----------7---(x2)--------------------------------------------|
E-----------------------------------------------------------------------|

Next Intro Riff

e------------------------------------------|
b---8-8-8-8-8-xxxxx------------------------|
g-7/9-9-9-9-9-xxxxx------------------------|
d-7/9-9-9-9-9-xxxxx------------------------|
a-5/7-7-7-7-7-xxxxx------------------------|
E------------------------------------------|

Verse

e-----------------------------------------------------------------------|
b-----------------------------------------------------------------------|
g-9-9-9-9-9--7-7-7------------------------------------------------------|
d-9-9-9-9-9--7-7-7--5-5-5-----------------------------------------------|
a-7-7-7-7-7--5-5-5--5-5-5-----------------------------------------------|
E-------------------3-3-3-----------------------------------------------|

Chorus

e------------------------------------------|
b---8-8-8-8-8-xxxxx------------------------|
g-7/9-9-9-9-9-xxxxx------------------------|
d-7/9-9-9-9-9-xxxxx------------------------|
a-5/7-7-7-7-7-xxxxx------------------------|
E------------------------------------------|

Next part after second verse

e------------------------------------------------------------------|
b------------------------------------------------------------------|
g-----7-7-7-7-7-7-7-7-----9-9-9-9-9-9-9-9--------------------------|
d-5-4-7-7-7-7-7-7-7-7-5-4-9-9-9-9-9-9-9-9--------------------------|
a-----5-5-5-5-5-5-5-5-----7-7-7-7-7-7-7-7--------------------------|
E------------------------------------------------------------------|

Next Part

e-----------------------------------------------------------------------------------------|
b-----------------------------------------------------------------------------------------|
g-----------------------------------------------------------------------------------------|
d-----------------------------------------------------------------------------------------|
a--------12-------12---12-------10-------10---10-------9--------9---9-------7-------7---7-|
E--0-0-0----0-0-0----0----0-0-0----0-0-0----0----0-0-0----0-0-0---0---0-0-0---0-0-0---0---|

After that everything just repeats.


----------------------------------------------------------------------------
2.Pattern Against User
----------------------------------------------------------------------------
Guitar 1 - Omar - Standard Tuning

Intro

e---------7---------3--2--0----3--2-0--2--------------------|
b-0--0---------3----------------------------0--0------------|
g-----------------------------------------------------------|
d-----------------------------------------------------------|
a-----------------------------------------------------------|
E-----------------------------------------------------------|

Verse

e-10-12----------|
b-------13--12---|
g----------------|
d----------------|
a----------------|
E----------------|

Chorus


e---------7---------3--2--0----3--2-0--2--------------------|
b-0--0---------3----------------------------0--0------------|
g-----------------------------------------------------------|
d-----------------------------------------------------------|
a-----------------------------------------------------------|
E-----------------------------------------------------------|

Interlude - clean

e------------------5-4------------------------|
b----5----7-5-------5-5--7-5------------------|
g--6---6-------6-----6-6-------6--6-----------|  -keep repeting and crescendo
d---------------------------------7-----------|
a---------------------------------------------|
E---------------------------------------------|

2nd Part - sounds sorta similar to the first riff but played faster - mild distortion

e------------------------------------------------------------------|
b---5--5--7-5-----5--5--5--5--------------------5--5--7-5----------|
g-6--6----------7--6--6--4-----(x3)then this--6--6---------6-7-----|
d--------------------------------------------------------------7---|
a------------------------------------------------------------------|
E------------------------------------------------------------------|

the rest repeats

Guitar 2 - Jim - Standard Tuning

Intro-distorted

e---------------------------|
b---------------------------|
g-22222-44444---------------|
d-22222-44444-44444-55555---|
a-00000-22222-44444-55555---|
E-------------22222-33333---|

Verses

pm.........................            .......     .......
e----------------------------0-0---0-0---------0-0------------0-0-0-|
B-3-3-3-3-3-3-3-3------------1-1-0-0-0-3-3-3-3-1-0------------0-0-0-|
G-2-2-2-2-2-2-2-2------------0-0---0-0-2-2-2-2-0-0------------0-0-0-|
D-0-0-0-0-0-0-0-0-2-2-2-2-2------------0-0-0-0-----2-2-2-2----------|
A-----------------3-3-3-3-3------------------------3-3-3-3----------|
E-------------------------------------------------------------------|
pm.........................            .......     .......

Interlude - just keep repeting this

      pm..............................
e-12----------------------------------------------------------------|
B---12-----5--5h7-----5-----7---------------------------------------|
G--------5-------6------6-----6---6---------------------------------|
D------7----7-----7-------7-----7---7-------------------------------|
A-------------------------------------------------------------------|
E-------------------------------------------------------------------|

the rest repeats

----------------------------------------------------------------------------
3. One Armed Scissor
----------------------------------------------------------------------------

Guitar 1 - Omar - Standard Tuning

Intro

e--------------------|
b-88888---88888------|
g-77777-7-77777-7----|
d-xxxxx-x-xxxxx-x----|
a-77777-7-77777-7----|
E--------------------|

1st Verse

e-7-7-7-77-7---1212121212121212---------|
b-x-x-x-xx-x---1212121212121212---------|
g-x-x-x-xx-x----------------------------|
d-7-7-7-77-7----------------------------|
a---------------------------------------|
E---------------------------------------|

Chorus

e----------------------------------------|
b-88888---33333-3-1212121212-------------|
g-77777-7-xxxxx-x-xxxxxxxxxx-------------|
d-xxxxx-x-44444-4-1010101010-1010101010--|
a-77777-7-55555-5-1212121212-8-8-8-8-8---|
E----------------------------8-8-8-8-8---|

Prelude

e-----------------------------------------|
b-------0---0--xx-------------------------|
g-----0--------xx-----0---0---0-----------|
d---5---5------xx---5---0---0---2---------|
a-7---7--------xx-7---5---3---2---3-2-0---|
E-----------------------------------------|

Verse 2

e-0-12-0-10-0-0-5-0-0-10-0-0-0-5-7-0-12-0-10-0-0-5-0-0-0------7-8-7--|
b---------------------------------------------------------8-7--------|
g--------------------------------------------------------------------|
d--------------------------------------------------------------------|
a--------------------------------------------------------------------|
E--------------------------------------------------------------------|

Next Part of Verse -  this is very hard to hear and could be way off but is the best i can do

e----------------------------------------------|
b---------10---------10---------10-10----------|
g----0----------0-----------0---------12-11----|
d-12---12----12---12-----12---12---------------|  (x2)
a----------------------------------------------|
E----------------------------------------------|

e---------------------------------------|
b---------------------------------------|
g---------------------------------------|
d-1010101010-9-9-9-9-9--777777-555555---|
a-1212121212-1010101010-999999-777777---|
E---------------------------------------|

Verse 3

e-----------------------------------|
b-----0------0------0--------0------|
g-------0------0------0--------0----|
d---5------0------2--------2--------|
a-7-------5------3-------2----------|
E-----------------------------------|

Breakdown thing - let last chord ring for a second then palm mute and crescendo into chorus again
                                         PM
                                     .........
e-0---2------3--2----0---2------3--2~------------------|
b-0---0------1--0----0---0------1--0~------------------|
g-0---0------0--2----0---0------0--2~-222222222--------|
d-2---0------2--1----2---0------2--1~-111111111--------|
a-2---x------3--2----2---x------3--2~-222222222--------|
E-0---3--------------0---3-----------------------------|

Outro

e------------------------|
b-1212121212-------------|
g-xxxxxxxxxx-------------|
d-1010101010--101010-----|
a-1212121212--101010-----|
E-------------8-8-8------|

End

e-----------|
b-88888-----|
g-77777-7---|
d-xxxxx-x---
a-77777-7---|
E-----------|

Guitar 2 - Jim - Standard Tuning


Intro

e--------------------|
b-88888---88888------|
g-77777-7-77777-7----|
d-xxxxx-x-xxxxx-x----|
a-77777-7-77777-7----|
E--------------------|

1st verse

e---------------------------------------------------14---|
b---------0-----------0----------0---------------15------|
g-------0---0-------0---0------0---0----------14---------|
d----10----------10---------10---------------------------|
a-12-----------12---------12-----------------------------|
E--------------------------------------------------------|

Chorus

e-------0-------0-----------------------|
b-88888-0-------0-----------------------|
g-77777-0-77777-0-1010101010------------|
d-xxxxx---77777---8-8-8-8-8-1010101010--|
a-77777---55555---8-8-8-8-8-8-8-8-8-8---|
E---------------------------8-8-8-8-8---|

Prelude

e------------------------------|
b-------0--0-------------------|
g-----0--0--0--0--0--0---------|
d---2--2--2--0--0--0-----------|
a-2--2--2--5--3--2-------------|
E------------------------------|

Verse 2

e---------------------------------------|
b---------------------------------------|
g---------------------------------------|
d-1010101010-9-9-9-9-9--777777-555555---|
a-1212121212-1010101010-999999-777777---|
E---------------------------------------|
PM.....................................

Next part - not palm muted

e-0000000000-000000000--000000-000000---|
b-0000000000-000000000--000000-000000---|
g-0000000000-000000000--000000-000000---|
d-1010101010-9-9-9-9-9--777777-555555---|
a-1212121212-1010101010-999999-777777---|
E---------------------------------------|

Next Part

e---------------------------------------------------|
b-----------13-----------12----------10-------------|
g---------------------------------------------------|
d-10101010------9-9-9-9------777777------55555------|
a-12121212------10101010-----999999------77777------|
E---------------------------------------------------|
pm........      ........     ......      ......

"to do do" part
e---------------------------------------|
b---------------------------------------|
g---------------------------------------|  pm the last chord last time leading
d-1010101010-9-9-9-9-9--777777-555555---|  into next chorus
a-1212121212-1010101010-999999-777777---|
E---------------------------------------|
                               ......

Verse 3

e-----------------------------------------------------------------------------------|
b-12-12-12-12-12-12-12-12-10-10-10-10-10-10-10-12-8-8-8-8-7-7-7-7-5-5-5-5-7-7-8-8---|
g-----------------------------------------------------------------------------------|
d-----------------------------------------------------------------------------------|
a-----------------------------------------------------------------------------------|
E-----------------------------------------------------------------------------------|

Breakdown part

e--------------------------------------------------------------------------|
b--------------------------------------------------------------------------|
g-16161616-14141414-12121212-1111111-16161616-14141414-12121212------------|
d-xxxxxxxx-xxxxxxxx-xxxxxxxx-x-x-x-x-xxxxxxxx-xxxxxxxx-xxxxxxxx--9999999---|
a-14141414-12121212-10101010-9-9-9-9-14141414-12121212-10101010--9999999---|
E----------------------------------------------------------------7777777---|
pm into last chorus                                              .......

Outro

e--------|
b--------|
g-10-----|
d-x--10--|
a-8--10--|
E----8---|

End

e-----------|
b-88888-----|
g-77777-7---|
d-xxxxx-x---
a-77777-7---|
E-----------|

----------------------------------------------------------------------------
4. Sleepwalk Capsules
----------------------------------------------------------------------------

Guitar 1 - Omar - Standard Tuning

Verses

e----------------------------------------------------|
b-1515-15151515---15151515141414141212121215151515---|
g-1212-12121212---12121212121212121414141414141414---|
d----------------------------------------------------|
a----------------------------------------------------|
E----------------------------------------------------|

Chorus

e------2----------3-----------------------|
b--------3----------5---------------------|
g---4------------------555555-------------|
d-2-----------5--------555555-------------|
a-----------3----------333333-------------|
E----------------------333333-------------|

Bridge - add different effects delay or phaser

e-0----------------------0--------------------|
b-2---------3---3---3----2-------2------------|
g-2-------0---0---0------2-----2---2----------|
d-2---2------------------2---2-------2---2----|
a-0---2------------------0-0-------------2----|
E-0---0------------------0---------------0----|
pm                         . . . . . .

last thing of brigde

e-----------------------|
b-----------------------|
g-----------------------|
d-----------------------|
a-----------------------|
e-6-5-3-6-2-6-5-2-10----|

thats it the rest repeats

Guitar 2 - Jim - Standard Tuning

Verses

e-15-15---15-15-15---15------------------------------------------|
b-15-15---15-15-15---15-141414141412121212141414141415151515-----|
g-0--0----0--0--0----0--141414141414141414141414141414141414-----|
d-14-14---14-0--0----0-------------------------------------------|
a-15-15---15-14-14---14------------------------------------------|
E------------15-15---15------------------------------------------|

Chorus

E-----------------|
B-----------------|
G-------7-----5---|
D-2-----7-----5---|
A-2-----5-----3---|
E-0-----------3---|

Bridge

e-0----------------------0--------------------------------|
b-2---------3---3---3-2--2--------------------------------|
g-2-------0---0---0------2-----2-------2-------2----------|
d-2---2------------------2---2---2---2---2---2---2----2---|
a-0---2------------------0-0-------0-------0-------0--2---|
E-0---0------------------0----------------------------0---|

last thing of brigde

e-----------------------|
b-----------------------|
g-----------------------|
d-----------------------|
a-----------------------|
e-6-5-3-6-2-6-5-2-10----|

Last Verse

e-15-15--15-----15-15-15--15---------------------------------------------|
b-15-15----15---15-15-15----15--141414141412121212141414141415151515-----|
g-0--0----------0--0--0---------141414141414141414141414141414141414-----|
d-14-14---------14-0--0--------------------------------------------------|
a-15-15---------15-14-14-------------------------------------------------|
E------------------15-15-------------------------------------------------|

thats it

----------------------------------------------------------------------------
5. Invalid Litter Department
----------------------------------------------------------------------------

Guitar 1 - Omar - Dropped D Tuning

Intro

e----------------------------------------|
b-------------10-------------------5-----|
g----7-----------------------3-----------|
d-9-----9-----------------5-----5--------|
a----------------------------------------|
D----------------------------------------|

e---------------------------------------------------------|
b-------10-----8--------7----8----------5------3----------|
g---7------7-------7-------7--------3------3--------------|
d-9---9------9-------9------------5---5------5------------|
a---------------------------------------------------------|
D---------------------------------------------------------|

Verses - played sorta fast and trickier than it looks-play through all verse

e----------------------------------------|
b---10----8------------------------------|
g-7----9----9-7-7-9-7-7-9-7-7-9-7--------|
d----------------------------------9-7---|
a----------------------------------------|
D----------------------------------------|

Chorus

e--12-9-------15-14-----------|
b--------------------15-------|
g-----------------------------|
d-----------------------------|
a-----------------------------|
D-----------------------------|

Break Down Part

e------------------------------------------------------------|
b--------------------------------------10-7------10-7-8-7----|
g-----------------------------------7---------7--------------|  (x3)
d-999979-79-9-79-4-555545-45-5-45-9---------9----------------|
a-999979-79-9-79-4-555545-45-5-45----------------------------|
D-999979-79-9-79-4-555545-45-5-45----------------------------|

e---------7b----------7b-----------7b---------------------------------|
b---------7b----------7b-----------7b---------10-7-------10-7-8-7-----|
g---7--------------------------------------7----------7---------------|
d-9---9-7--------5-------------5--------9----------9------------------|
a-------------5--------------5----------------------------------------|
D---------------------------------------------------------------------|

end on

e-----
b-----
g-----
d-9---
a-9---
D-9---

Guitar 2 - Jim - Dropped D Tuning


Intro

e----------------------------------------|
b-------------10-------------------5-----|
g----7-----------------------3-----------|
d-9-----9-----------------5-----5--------|
a----------------------------------------|
D----------------------------------------|

e---------------------------------------------------------|
b-------10-----8--------7----8----------5------3----------|
g---7------7-------7-------7--------3------3--------------|
d-9---9------9-------9------------5---5------5------------|
a---------------------------------------------------------|
D---------------------------------------------------------|

Verses - the 11/16 slide is when he sings "dancing on the corpses ashes

e------------------------------------|
b------------------------------------|
g---------------------------11/16----|
d---7--7--------7---7-9-7------------|
a-9--9---9-7--9---9------------------|
D------------------------------------|

on the last time of the verse play this into chorus

e--------------------------14-15-------|
b--------------------15-14-------14----|
g--11/16-------16-14-------------------|
d--------------------------------------|
a--------------------------------------|
D--------------------------------------|

Chorus
     e-------------------------------------------------------------------------|
     b-------------------------------------------------------------------------|
     g-------------------------------------------------------------------------|
     d-0-9-12-0-9-12-0-9--12-0-9-12-0-9-12-0--5-5-5-5-5-5-5-5--4-4-4-4-7-7-7-7-|
     a-0-9-12-0-9-12-0-9--12-0-9-12-0-9-12-0--5-5-5-5-5-5-5-5--4-4-4-4-7-7-7-7-|
     D-0-9-12-0-9-12-0-9--12-0-9-12-0-9-12-0--5-5-5-5-5-5-5-5--4-4-4-4-7-7-7-7-|

Breakdown

e--------------------------------------------------------|
b--------------------------------------------------------|
g--------------------------------------------------------|  Reapeat till end
d-999979-79-9-79-4-555545-45-5-45-2~~~----55555555-------|
a-999979-79-9-79-4-555545-45-5-45-2~~~----55555555-------|
D-999979-79-9-79-4-555545-45-5-45-2~~~----55555555-------|

---------------------------------------------------------------------------
6. Mannequin Republic
---------------------------------------------------------------------------

Guitar 1 - Omar -  Drop D tuning

Intro -- bend the 9 fret g string notes up and down and sometimes just up

e------------------------0-----0--|
b------------------------0-----0--|
g-9-9--9^--9-9--9^--9-9----9-9----|
d-8-8------8-8------8-8----8-8----|
a-8-8------8-8------8-8----8-8----|
D-8-8------8-8------8-8----8-8----|

Verses

e------------------------------------------------------|
b------------------------------------------------------|
g------------------------------------------------------|
d-141414141414-12121212121212-11111111-88888-----------|
a------------------------------------------------------|
D------------------------------------------------------|

play this 2 times before chorus

e-----------------------------------------------|
b-----------------------------------------------|
g-----------------------------------------------|
d-141414141414-1616161616-1717171717-19191919---|
a-----------------------------------------------|
D-----------------------------------------------|

Chorus

e-------------------------------|
b-------------------------------|
g-13-9-9-13-11-7-6--------------|
d-13-9-9-13-11-7-6--------------|
a-11-7-7-11-9--5-4--------------|
D-------------------------------|

Interlude thing

e------------------|
b------------------|
g------------------|
d-14^-8-9-11-12^---|
a------------------|
D------------------|

Bridge

e---0--0--0--0--0--0--0--0--0--0-----|
b-5--5--7--7--8--8--3--3--5--5-------|
g------------------------------------|
d------------------------------------|
a------------------------------------|
D------------------------------------|

Thats it

Guitar 2 - Jim - Dropped D Tuning

Intro

e------------------------0-----0--|
b------------------------0-----0--|
g-9-9--9^--9-9--9^--9-9----9-9----|
d-8-8------8-8------8-8----8-8----|
a-8-8------8-8------8-8----8-8----|
D-8-8------8-8------8-8----8-8----|

Verses

e-----------|
b-----------|
g-9-7-6-4---|
d-9-7-6-4---|
a-7-5-4-2---|
D-----------|

Chorus

e-------------------------------|
b-------------------------------|
g-13-9-9-13-11-7-6--------------|
d-13-9-9-13-11-7-6--------------|
a-11-7-7-11-9--5-4--------------|
D-------------------------------|

Interlude thing

e----------------|
b----------------|
g-9-3-4-xxxxxx---|
d-9-3-4-xxxxxx---|
a-7-1-2-xxxxxx---|
D----------------|

Bridge

e---------------------------------------|
b-00000-00000-00000-00000-00000000000---|
g-00000-00000-00000-00000-00000000000---|
d-55555-55555-55555-55555-44444444444---|
a-77777-66666-55555-33333-22222222222---|
D---------------------------------------|

Thats it...the rest repeats
-----------------------------------------------------------------------------
7. Enfilade
-----------------------------------------------------------------------------

Guitar 1 - Omar - Standard Tuning

Intro - wah effect used

e------------|
b------------|
g------------|
d------------|
a-2----5-4---|
E------------|

Verse1

e--------------------------191919191919-----------------------------------------------|
b-191919191919--------------------------1919191919------------------------------------|
g--------------1919191919----------------------------1919191919-----------------------|
d--------------------------------------------------------------------------19191919---|
a-----------------------------------------------------------------16161616------------|
E-------------------------------------------------------------------------------------|

Next part of verse

e-----------------------------19--------|
b----------------------------------19---|
g-19-----19-----19-----19--19-----------|
d---------------------------------------|
a---16-16--16-16--16-16--16-------------|
E---------------------------------------|

pre chorus

e--------------------------------------------------------5-----------|
b-------------------------------------------------7------7-----------|
g--------------7--------7--------7--------------------------8--7-----|
d---6----4---8----7-------7-----6------6-------------------------6-5-|
a-7----5-------------6--------57---5-7----5-----------5--------------|
E---------------------------------------------------6----------------|

Chorus

e-----------19(play second time)-----------------------------|
b-19--------17--------16------12-------------12--------------|
g------------------------------------------------------------|
d------------------------------------------------------------|
a------------------------------------------------------------|
E------------------------------------------------------------|

Interlude

e------------|
b-------14---|
g----11------|
d-14---------|
a------------|
E------------|

then

e--------------------------------------------------------------|
b--------------------------------------------------------------|
g--------------------------------------------------------------|
d-141414-------------------------------------------------------|
a--------12121212-10101010-999999-777777-55555-44444-22222~----|
E--------------------------------------------------------------|

The rest repeats

Guitar 2 - Jim - Standard Tuning

Verse - comes in when cedric starts to sing

e--------------------------------------19------|
b-19------19-------19-------19----19------19---|
g---18-18----18-18----18-18----18--------------|
d----------------------------------------------|
a----------------------------------------------|
E----------------------------------------------|

Chorus

e-------------------------------|
b-------------------------------|
g-------------------------------|
d-9-7-9-5-2-2-2-2-2-2-2-2-2-2---|
a-9-7-9-5-2-2-2-2-2-2-2-2-2-2---|
E-7-5-7-3-0-0-0-0-0-0-0-0-0-0---|

Interlude

e----------------------------|
b-12-10-12-10-12-10----------|
g----------------------------|
d----------------------------|
a----------------------------|
E----------------------------|

Next Part

e------------------------------------------------------------|
b-22-21-19-22-21-19-22-21-19--17-------------12--------------|
g------------------------------------------------------------|
d------------------------------------------------------------|
a------------------------------------------------------------|
E------------------------------------------------------------|

The rest repeats thats it!

----------------------------------------------------------------------------
8. Rolodex Propoganda
----------------------------------------------------------------------------
 Jim plays keys on this song and Cedric plays second guitar.
 I used the tab on this site to help me out some cuz Omars part really hard to tab.

Guitar 1 - Omar - Standard Tuning

Intro/verse

e-----------------------0----------------------|
b----------5^v^v----------0-7-0---8--------10--|
g--14-14----------------------0-9---0h9h11-----|
d--x--x----------------------------------------|
a--12-12---------------------------------------|
E----------------------------------------------|

Verse part 2 - "Manscript Replica"

e-----------|
b-----------|
g-17--------| strum in same pattern as guitar 2
d-x---------|
a-15--------|
E-----------|

Chorus

e-----------------------|
b-----------------------|
g--10-----9-------------|
d--10-----9-----7----5--|
a--8------7-----7----5--|
E---------7-----5----3--|

Guitar 2 - Cedric - Standard Tuning

Intro/verse

e-------|
b-------|
g-14----|
d-x-----|
a-12----|
E-------|

Verse part 2

e-------------------------------------|
b-------------------------------------|
g-77-77-77-77-7777-22-22-11-1111111---|
d-xx-xx-xx-xx-xxxx-xx-xx-xx-xxxxxxx---|
a-88-88-88-88-8888-33-33-22-2222222---|
E-------------------------------------|

Chorus

e-----------------------|
b-----------------------|
g--10-----9-------------|
d--10-----9-----7----5--|
a--8------7-----7----5--|
E---------7-----5----3--|

Thats it

----------------------------------------------------------------------------
9. Quarantined
----------------------------------------------------------------------------

Guitar 1 - Omar - Standard tuning

Intro - distorted, delay, and other effects if your want them

e-7---------5---------5--------5--|
b-8---------7---------5--------7--|
g-9---------7---------6--------7--|
d-9---------7---------7--------7--|
a---------------------------------|
E---------------------------------|

Verses

e-20----20----20----20-------------18----18----18----18----18-----|
b---17----17----17----17---20-17-----15----15----15----15----15---|
g-----19----19----19----19------19-----17----17----17----17----17-|
d-----------------------------------------------------------------|
a-----------------------------------------------------------------|
E-----------------------------------------------------------------|

Chorus

e------------------------------------------|
b------------------------------------------|
g-1414141412~1414141412~11111111-99999-----|
d-x-x-x-x-x--x-x-x-x-x--x-x-x-x--xxxxx-----|
a-1212121210~1212121210~9-9-9-9--77777-----|
E------------------------------------------|

Thats all for omar the rest repeats

Guitar 2 - Jim - Standard Tuning

Intro

e------19-----17-----15-----10-------|
b------x------x------x------x--------|
g------x------x------x------x--------|
d------18-----16-----14-----9--------|
a------x------x------x------x--------|
E------19-----17-----15-----10-------|

verses

e----------------|
b-8--------------|
g-9-12-6-9--8----|
d-9-12-7-10-9----|
a-7-10-7-10-9----|
E------5-8--7----|

Chorus

e------------------------------------------|
b------------------------------------------|
g-1414141412~1414141412~11111111-99999-----|
d-x-x-x-x-x--x-x-x-x-x--x-x-x-x--xxxxx-----|
a-1212121210~1212121210~9-9-9-9--77777-----|
E------------------------------------------|

Thats all

---------------------------------------------------------------------
10. Cosmonaut
---------------------------------------------------------------------

Guitar 1 - Omar - Standard Tuning

Intro

e-------------------------------------------------------|
b-10-----10---------12--(x4)---10-----12----10-----(x4)-|
g----11-----11--11----------------11-----11-----11------|
d-------------------------------------------------------|
a-------------------------------------------------------|
E-------------------------------------------------------|

Verses

e--------------------------------------------------------------0----------|
b-10~--------12~--------7~--8~----10--10---12--12-12~-------------0--0----|
g-----9--11~-11------7--7~--7~----9---9----11--11-11~----9^10--------9^10-|
d-------------------------------------------------------------------------|
a-------------------------------------------------------------------------|
E-------------------------------------------------------------------------|

Chorus - the slide from the 4th fret to 11th on the g string is what omar does live.

e-----------------------------------------------5---3-----2-----|
b---------------------------------------------------------------|
g---------------12-12-12-12-12-12--77777777--4----4----4(/11)---|
d-10101010-1010-x--x--x--x--x--x---77777777---------------------|
a-x-x-x-x--x-x--10-10-10-10-10-10--55555555---------------------|
E-8-8-8-8--8-8--0--0--0--0--0--0--------------------------------|
PM                                 ........

thing after second chorus leading to interlude

e---5---3---2-----------------5---3------|
b---------------5---4---------------5~---|
g-4---4---4---4---4---------4---4---4~---|
d----------------------------------------|
a----------------------------------------|
E----------------------------------------|

interlude

e--------------------------------------------|
b--10--10-10---10--10-10---7--7-7---5--5-5---|
g--x---x--x----x---x--x----x--x-x---x--x-x---|
d--x---x--x----x---x--x----x--x-x---x--x-x---|
a--10--10-10---x---x--x----x--x-x---x--x-x---|
E--------------10--10-10---7--7-7---5--5-5---|

next part of interlude

e----------------------------------------|
b-101010-10101010-10101010-1010101010----|
g-111111-12121212-7-7-7-7--9-9-9-9-9-----|
d----------------------------------------|
a----------------------------------------|
E----------------------------------------|

Bridge - kinda improv on that

e---5----3----|
b--0-0--0-0---|
g-4---4----4--|
d-------------|
a-------------|
E-------------|

Thats it

Guitar 2 -Jim- Standard tuning

Intro

e---------------------------------------------------------------------------|
b---------------------------------------------------------------------------|
g-9999999999-11-11-11-11-11-11-11-12121212121212121212-1414141414141414-----|
d-xxxxxxxxxx-x--x--x--x--x--x--x--xxxxxxxxxxxxxxxxxxxx-xxxxxxxxxxxxxxxx-----|
a-7777777777-9--9--9--9--9--9--9--10101010101010101010-1212121212121212-----|
E---------------------------------------------------------------------------|

Verses - strum fast

e----------------------|
b-----7----------------|
g-9---7---12---14------|
d-9---x---12---14------|
a-7---5---10---12------|
E----------------------|

Chorus

e-5-5--5--5---7-7-7-7-7----------------------------------------|
b-x-x--x--x---7-7-7-7-7----------------------12----10~---------|
g-4-4--4--4---5-5-5-5-5-777777777777777------------------11~---|
d-x-x--x--x---x-x-x-x-x-555555555555555---10----10----10~------|
a-3-3--3--3---5-5-5-5-5-555555555555555------------------------|
E--------------------------------------------------------------|
PM                      ...............

Interlude

e--------------------------------------------|
b--------------------------------------------|
g--11--11-11---11--11-11---7--7-7---7--7-7---|
d--x---x--x----x---x--x----x--x-x---x--x-x---|
a--10--10-10---x---x--x----x--x-x---x--x-x---|
E--------------10--10-10---7--7-7---5--5-5---|

e---------------------------------------------------------------------------|
b---------------------------------------------------------------------------|
g-11-11-11-11-11-11--11-11-11-11-11-11\7-7-7-7-7-7-7-7-7-7-7-7-7-7-7-7-7----|
d-x--x--x--x--x--x---x--x--x--x--x--x--x-x-x-x-x-x-x-x-x-x-x-x-x-x-x-x-x----|
a-10-10-10-10-10-10--x--x--x--x--x--x--x-x-x-x-x-x-x-x-x-x-x-x-x-x-x-x-x----|
E--------------------10-10-10-10-10-10\7-7-7-7-7-7-7-7\5-5-5-5-5-5-5-5-5----|

Bridge (album)

e---5----3----|
b--0-0--0-0---|
g-4---4----4--|
d-------------|
a-------------|
E-------------|

Bridge (live)

e--------------------------------------------------------|
b--------------------------------------------------------|
g--------------------------------------------------------|
d--------------------------------------------------------|
a--------------------------------------------------------|
E-0~~~~~~-------0-0~~~~~~------0~~~~~~------0-0~~~~~~~---|

Thats it

--------------------------------------------------------------------------
11. Non-Zero Possibility
--------------------------------------------------------------------------
this song is mostly piano(jim) but here are the guitar parts

Guitar 1 - Omar - Standard Tuning

Chorus

e-----------|
b-17-20-15--|
g-----------|
d-----------|
a-----------|
E-----------|

Acoustic Guitar at end of song

e-----------|
b-----5-----|
g---5-------| - play fast then slow down, youll hear it
d-7---------|
a-----------|
E-----------|

Jim plays piano and there are no other guitar parts for this song


Well that is all of Relationship of Command, everything is probably 99.9% correct
and everything played the way i have it sounds great. this is an awsome album and
if you dont have it i suggest you buy it.
Добавлено: 25.10.2013
Другие материалы по этой песне:
  • Аккорды и текст

Страница создана 25.10.2013
http://primanota.ru/at-the-drive-in-2/relationship-of-command-chords.htm
Привет, Гость.
Предлагаем пройти революционный курс по гитаре.
Подарок от PrimaNota.Ru, забирай!