PrimaNota.ru - самый крупный в мире бесплатный архив песенных текстов, аккордов, табулатур и нот


At The Drive In - Pickpocket - текст песни, таба, видео

Регистрация Запомнить меня
Войти через:  Facebook Google Twitter Vk Yandex Mail.ru

At The Drive In - Pickpocket - текст песни, таба, видео

Печатать
Просмотров: 133
       e:----------------|
       b:--9~~~~~~~~~~~~~|
Gu1    g:--12~~~~~~~~~~~~|
 left  d:----------------|
       a:----------------|
       e:----------------|

____________________________________________________________
Riff 2

       e:--------------------|---------------------| repeated
       b:--9~~-9---12-bu-bd--|---------------------|
Gu1    g:--12~-12------------|-9-bu-bd-bu-bd-------|
 left  d:--------------------|---------------------|
       a:--------------------|---------------------|
       e:--------------------|---------------------|

       e:--------------------|---------------------| repeated
       b:--------------------|---------------------|
Gu2    g:--2--2-2--4--4-4----|-4--4-4------------2-|
right  d:--2--2-2------------|-------------------2-|
       a:--0--0-0--4--4-4----|-------------------0-|
       e:--------------------|-4--4-4---2-4--------|

__________________________________________________________
Riff 3 Verses

(Gu2 Stays the same as in riff 2)

       e:--------------------|---------------------| repeated
       b:-----12--------12---|----12------14---12--|
Gu1    g:--------------------|---------------------|
 left  d:--------------------|---------------------|
       a:--------------------|---------------------|
       e:--------------------|---------------------|

_____________________________________________________________
Riff 4 Chorus

Gu2 plays these chords: | B5 | A5 | B5 | A5 | B5 | A5 | B5 | G | G | G | G |

       e:--------------------|---------------------| repeated
       b:-----12----14--12---|---------------------|
Gu1    g:-/14----14----------|-----14----16--14----|
 left  d:--------------------|-/14----14-----------|
       a:--------------------|---------------------|
       e:--------------------|---------------------|

_____________________________________________________________
Riff 5

both guitars play

       e:----------------------------|-----------------0------| repeated
       b:----------------------------|-----------------0------|
       g:----------------------------|-----------------0------|
       d:----------------------------|-----------------0------|
       a:----------------------------|------------------------|
       e:--2-bu-bd-bu-bd-bu-bd-bu-bd-|-2-bu-bd-bu-bd----------|
Добавлено: 05.10.2013
Другие материалы по этой песне:
  • Аккорды и текст

Страница создана 06.09.2013
http://primanota.ru/at-the-drive-in-2/pickpocket-chords.htm
Привет, Гость.
Предлагаем пройти революционный курс по гитаре.
Подарок от PrimaNota.Ru, забирай!