PrimaNota.ru - самый крупный в мире бесплатный архив песенных текстов, аккордов, табулатур и нот


At The Drive In - Fahrenheit - текст песни, таба, видео

Регистрация Запомнить меня
Войти через:  Facebook Google Twitter Vk Yandex Mail.ru

At The Drive In - Fahrenheit - текст песни, таба, видео

Печатать
Просмотров: 131
Уроки эстрадного вокала в Санкт-Петербурге
-------------------------------------------------------------------------------
			     Fahrenheit - At the Drive-In
-------------------------------------------------------------------------------
Tabbed by: o Guitar o
Email: oguitaro@yahoo.com

Tuning: Standard

| /  slide up
| \  slide down
| h  hammer-on
| p  pull-off
| ~  vibrato
| +  harmonic
| x  Mute note


Intro
e|-----------------|
B|-----------------|
G|-9-9-9-9-9-9-9-9-|
D|-9-9-9-9-9-9-9-9-|
A|-7-7-7-7-7-7-7-7-|
E|-----------------|

Verse
e|--------------------------------|x5
B|--------------------------------|
G|-9-9-9----------7-7-7-7-6-6-6-9-|
D|-9-9-9-9-9-9-9--7-7-7-7-6-6-6-9-|
A|-7-7-7-9-9-9-9--5-5-5-5-4-4-4-7-|
E|-------7-7-7-7------------------|

e|------------------|
B|------------------|
G|-9-9-9----------7-|
D|-9-9-9-9-9-9-9--7-|
A|-7-7-7-9-9-9-9--5-|
E|-------7-7-7-7----|

Chorus
e|-----------------------------------------------------------------|x2
B|-----------------------------------------------------------------|
G|-9-9-9-9-9-9-9-9-9-9-9-9-9-9-9-9-7-7-7-7-7-7-7-7-5-5-5-5-5-5-5-5-|
D|-9-9-9-9-9-9-9-9-9-9-9-9-9-9-9-9-7-7-7-7-7-7-7-7-5-5-5-5-5-5-5-5-|
A|-7-7-7-7-7-7-7-7-7-7-7-7-7-7-7-7-5-5-5-5-5-5-5-5-3-3-3-3-3-3-3-3-|
E|-----------------------------------------------------------------|

Verse
e|--------------------------------|x3
B|--------------------------------|
G|-9-9-9----------7-7-7-7-6-6-6-9-|
D|-9-9-9-9-9-9-9--7-7-7-7-6-6-6-9-|
A|-7-7-7-9-9-9-9--5-5-5-5-4-4-4-7-|
E|-------7-7-7-7------------------|

e|------------------|
B|------------------|
G|-9-9-9----------7-|
D|-9-9-9-9-9-9-9--7-|
A|-7-7-7-9-9-9-9--5-|
E|-------7-7-7-7----|

Chorus
e|-----------------------------------------------------------------|x4
B|-----------------------------------------------------------------|
G|-9-9-9-9-9-9-9-9-9-9-9-9-9-9-9-9-7-7-7-7-7-7-7-7-5-5-5-5-5-5-5-5-|
D|-9-9-9-9-9-9-9-9-9-9-9-9-9-9-9-9-7-7-7-7-7-7-7-7-5-5-5-5-5-5-5-5-|
A|-7-7-7-7-7-7-7-7-7-7-7-7-7-7-7-7-5-5-5-5-5-5-5-5-3-3-3-3-3-3-3-3-|
E|-----------------------------------------------------------------|

Breakdown
e|-----------------------------------------|x4
B|-----------------------------------------|
G|-----------------------------------------|
D|-7---5---2----0---0h2---7---5-5----0-0h2-|
A|-----------------------------------------|
E|-----------------------------------------|

Bridge
e|-------------------12-|x4
B|----------------------|
G|-9---9---9---9---7----|
D|-8---8---8---8---7----|
A|-7---7---7---7---5----|
E|----------------------|

e|---|
B|---|
G|-9-|
D|-9-|
A|-7-|
E|---|

Chorus
e|-----------------------------------------------------------------|x2
B|-----------------------------------------------------------------|
G|-9-9-9-9-9-9-9-9-9-9-9-9-9-9-9-9-7-7-7-7-7-7-7-7-5-5-5-5-5-5-5-5-|
D|-9-9-9-9-9-9-9-9-9-9-9-9-9-9-9-9-7-7-7-7-7-7-7-7-5-5-5-5-5-5-5-5-|
A|-7-7-7-7-7-7-7-7-7-7-7-7-7-7-7-7-5-5-5-5-5-5-5-5-3-3-3-3-3-3-3-3-|
E|-----------------------------------------------------------------|

Outro
e|--------------------------------|x3
B|--------------------------------|
G|-9-9-9----------7-7-7-7-6-6-6-9-|
D|-9-9-9-9-9-9-9--7-7-7-7-6-6-6-9-|
A|-7-7-7-9-9-9-9--5-5-5-5-4-4-4-7-|
E|-------7-7-7-7------------------|

e|------------------|
B|------------------|
G|-9-9-9----------7-|
D|-9-9-9-9-9-9-9--7-|
A|-7-7-7-9-9-9-9--5-|
E|-------7-7-7-7----|

End
e|-------------------12-|
B|----------------------|
G|-9---9---9---9---7----|
D|-8---8---8---8---7----|
A|-7---7---7---7---5----|
E|----------------------|

That's it, there's no solo in this one.  Pretty simple, this is just the power chord version.

Enjoy =]




===============================================================================
Добавлено: 20.09.2013
Другие материалы по этой песне:
  • Аккорды и текст

Страница создана 20.09.2013
http://primanota.ru/at-the-drive-in-2/fahrenheit-chords.htm
Привет, Гость.
Предлагаем пройти революционный курс по гитаре.
Подарок от PrimaNota.Ru, забирай!