PrimaNota.ru - самый крупный в мире бесплатный архив песенных текстов, аккордов, табулатур и нот


At The Drive In - Extracurricular - текст песни, таба, видео

Регистрация Запомнить меня
Войти через:  Facebook Google Twitter Vk Yandex Mail.ru

At The Drive In - Extracurricular - текст песни, таба, видео

Печатать
Просмотров: 105
Extracurricular - At the Drive-In

opening x4 w/ a double-time rythem (intro)

GUITAR 1
E|-0-0-0-0--0--------------------------------------------|
B|-0-0-0-0--0--------------------------------------------|
G|-9-7-9-7--11-------------------------------------------|
D|-------------------------------------------------------|
A|-------------------------------------------------------|
E|-------------------------------------------------------|

play...matching GUITAR 1's rythem

GUITAR 2
E|--0----------------------------------------------------|
B|--0----------------------------------------------------|
G|--9----------------------------------------------------|
D|-------------------------------------------------------|
A|-------------------------------------------------------|
E|-------------------------------------------------------|

heavy distortion x4 (part 1)

GUITAR 1 
E|-------------------------------------------------------|
B|-------------------------------------------------------|
G|-7--XX-XX--7--XX-XX--7--XX-XX--7--XX-XX----------------|
D|-7--XX-XX--7--XX-XX--7--XX-XX--7--XX-XX----------------|
A|-9--XX-XX--9--XX-XX--9--XX-XX--9--XX-XX----------------|
E|-------------------------------------------------------|

also heavy distortion--- w/ GUITAR 1

GUITAR 2
E|-------------------------------------------------------|
B|-------------------------------------------------------|
G|-------------------------------------------------------|
D|-2-----------------------------------------------------|
A|-2-----------------------------------------------------|
E|-0-----------------------------------------------------|

GUITAR 1 (1.1)
E|--12--11---11--15----11--------------------------------|
B|--------13--------13-----------------------------------|
G|-------------------------------------------------------|
D|-------------------------------------------------------|
A|-------------------------------------------------------|
E|-------------------------------------------------------|

then...

GUITAR 2 (intro to part 2)
E|-------------------------------------------------------|
B|-------------------------------------------------------|
G|----------7---7----------------------------------------|
D|-2--------6-6-6-6-6------------------------------------|
A|-2----------------------0-0-1-2------------------------|
E|-0-----------------------------------------------------|



GUITAR 1 and 2 x6  last 4 PMuted (part 2)
E|-------------------------------------------------------|
B|-------------------------------------------------------|
G|------7---7---------------2---7---7--------------------|
D|-2----6-6-6-6-6-----------2---7-7-7-7-7----------------|
A|-2---------------0-0-1-2--0--------------0-0-1-2-------|
E|-0-----------------------------------------------------|

(part 1 again)

(then part 2...no intro)

(part 1 again)

then...

GUITAR 1 (part 3)
E|---0---------------------------------------------------|
B|---0---------------------------------------------------|
G|---0---------------------------------------------------|
D|---0---------------------------------------------------|
A|-------------------------------------------------------|
E|-------------------------------------------------------|

GUITAR 2 x2
E|-------------------------------------------------------|
B|--------------------------8-8-8-9-8--------------------|
G|----9-9-9-9-9-9-9-9-7-7-7------------------------------|
D|-------------------------------------------------------|
A|-------------------------------------------------------|
E|-------------------------------------------------------|

GUITAR 1 in... 
E|--12-12-12-12-12-12-12-12------------------------------|
B|-------------------------10-10-10-11-11-11-12-12-------|
G|-------------------------------------------------------|
D|-------------------------------------------------------|
A|-------------------------------------------------------|
E|-------------------------------------------------------|

GUITAR 1 (part 4.1) x1
E|---7--------12--15-----10--12--------------------------|
B|-----8-------12----------10-------10b(1)--8-10-8-------|
G|-------9-----------------------------------------------|
D|-------------------------------------------------------|
A|-------------------------------------------------------|
E|-------------------------------------------------------|

         (4.2) x2
E|--------7----12--15---10----12-------------------------|
B|-----8---------12--------10-----10b(1)--8-10-8---------|
G|---9---------------------------------------------------|
D|-------------------------------------------------------|
A|-------------------------------------------------------|
E|-------------------------------------------------------|

(part 1) x4 and on the last x1...instead of (1.1), play an extra E chord
U better play this good omar rules
Добавлено: 04.10.2013
Другие материалы по этой песне:
  • Аккорды и текст

Страница создана 13.08.2013
http://primanota.ru/at-the-drive-in-2/extracurricular-chords.htm
Привет, Гость.
Предлагаем пройти революционный курс по гитаре.
Подарок от PrimaNota.Ru, забирай!