PrimaNota.ru - самый крупный в мире бесплатный архив песенных текстов, аккордов, табулатур и нот


Asylum Party - Play Alone - бас-таба, видео

Регистрация Запомнить меня
Войти через:  Facebook Google Twitter Vk Yandex Mail.ru

Asylum Party - Play Alone - бас-таба, видео

Печатать
Просмотров: 231
Уроки эстрадного вокала в Санкт-Петербурге
Авторы музыки: Pascale Macé, Thierry Sobézyk, Philippe Planchon
Авторы текста: Pascale Macé, Thierry Sobézyk, Philippe Planchon
ASYLUM PARTY - PLAY ALONE

G|----------------|
D|----------------|
A|----------------| x4
E|-0-0-0-0--0--0--|

G|----------------------------------------------------------|
D|----------------------------------------------------------|
A|----------------------------------------------------------| 1,3,7,9,11
E|-4-4-4-4--4--4-4-4-4-4--4--4-5-5-5-5--5--5-5-5-5-5--5--5--|

G|----------------------------------------------------------|
D|----------------------------------------------------------|
A|-----------------------------4-4-4-4-4-4-4-4-4-4-4-4-4-4--| 2,4,6,8,10,12
E|-0-0-0-0--0--0-0-0-0-0--0--0------------------------------|

G|----------------------------------------------------------|
D|----------------------------------------------------------|
A|----------------------------------------------------------| 5
E|-4-4-4-4--4--4-4-4-4-4--4--4-2-2-2-2--2--2-2-2-2-2--2--2--|

G|-----------------------------------------------------------------|
D|-4-4-4-4-4-4-4-4-4-4-4-4-4-4-4-4-6-6-6-6-6-6-6-6-6-6-6-6-6-6-6-6-|
A|-----------------------------------------------------------------|
E|-----------------------------------------------------------------|

G|-----------------------------------------------------------------|
D|-4-4-4-4-4-4-4-4-4-4-4-4-4-4-4-4-6-6-6-6-6-6-6-6-6-6-6-6---------|
A|---------------------------------------------------------4-------| x2
E|------------------------------------------------------------5--4-|

G|---------------------------------------------------------------|
D|-4-4-4-4-4-4-4-4-4-4-4-4-4-4-4-4-6-6-6-6-6-6-6-6---------------|
A|---------------------------------------------------------------| 
E|-------------------------------------------------5--4--2--2--2-|

G|----------------------------------------------------------|
D|----------------------------------------------------------|
A|----------------------------------------------------------| 1,3,7,
E|-4-4-4-4--4--4-4-4-4-4--4--4-5-5-5-5--5--5-5-5-5-5--5--5--|

G|----------------------------------------------------------|
D|----------------------------------------------------------|
A|-----------------------------4-4-4-4-4-4-4-4-4-4-4-4-4-4--| 2,4,6,8,
E|-0-0-0-0--0--0-0-0-0-0--0--0------------------------------|

G|----------------------------------------------------------|
D|----------------------------------------------------------|
A|----------------------------------------------------------| 5
E|-4-4-4-4--4--4-4-4-4-4--4--4-2-2-2-2--2--2-2-2-2-2--2--2--|

G|-----------------------------------------------------------------|
D|-4-4-4-4-4-4-4-4-4-4-4-4-4-4-4-4-6-6-6-6-6-6-6-6-6-6-6-6-6-6-6-6-|
A|-----------------------------------------------------------------|
E|-----------------------------------------------------------------|

G|-----------------------------------------------------------------|
D|-4-4-4-4-4-4-4-4-4-4-4-4-4-4-4-4-6-6-6-6-6-6-6-6-6-6-6-6---------|
A|---------------------------------------------------------4-------| x2
E|------------------------------------------------------------5--4-|

G|---------------------------------------------------------------|
D|-4-4-4-4-4-4-4-4-4-4-4-4-4-4-4-4-6-6-6-6-6-6-6-6---------------|
A|---------------------------------------------------------------| 
E|-------------------------------------------------5--4--2--2--2-|

G|------------------------------------------------------|
D|------------------------2-2-4--6-6-4-4----------------|
A|---------------------------------------7--6-6--4-4--2-| 1,3
E|-2--2--4--2--2-2-4-2-2--------------------------------|

G|------------------------------------------------------|
D|------------------------2-2-4--6-6-4-4-7--6-6--4-4--7-|
A|------------------------------------------------------| 2,4
E|-2--2--4--2--2-2-4-2-2--------------------------------|

G|----------------|
D|----------------|
A|----------------| x4
E|-0-0-0-0--0--0--|

G|----------------------------------------------------------|
D|----------------------------------------------------------|
A|----------------------------------------------------------| 1,5,11,13,
E|-4-4-4-4--4--4-4-4-4-4--4--4-2-2-2-2--2--2-2-2-2-2--2--2--|

G|----------------------------------------------------------|
D|----------------------------------------------------------|
A|-----------------------------4-4-4-4-4-4-4-4-4-4-4-4-4-4--| 2,4,6,8,10,12,
E|-0-0-0-0--0--0-0-0-0-0--0--0------------------------------|

G|----------------------------------------------------------|
D|----------------------------------------------------------|
A|----------------------------------------------------------| 3,7,9
E|-4-4-4-4--4--4-4-4-4-4--4--4-5-5-5-5--5--5-5-5-5-5--5--5--|

G|------------------------------------------------------------|
D|------------------------------------------------------------|
A|-----------------------------4-4-4--2--4--2-4-4-4--2--4--2--| 1,3,5
E|-0-0-0-0--0--0-0-0-0-0--0--0--------------------------------|

G|----------------------------------------------------------|
D|----------------------------------------------------------|
A|----------------------------------------------------------| 2,4,6
E|-4-4-4-4--4--4-4-4-4-4--4--4-2-2-2-2--2--2-2-2-2-2--2--2--|

G|------------------|
D|------------------|
A|------------------|
E|-0----------------|
Добавлено: 01.08.2013
Другие материалы по этой песне:
  • Аккорды и текст

Страница создана 01.08.2013
http://primanota.ru/asylum-party/play-alone-chords.htm
Привет, Гость.
Предлагаем пройти революционный курс по гитаре.
Подарок от PrimaNota.Ru, забирай!