PrimaNota.ru - самый крупный в мире бесплатный архив песенных текстов, аккордов, табулатур и нот


Asylum Party - Julia - таба, видео

Регистрация Запомнить меня
Войти через:  Facebook Google Twitter Vk Yandex Mail.ru

Asylum Party - Julia - таба, видео

Печатать
Просмотров: 180
Авторы музыки: Thierry Sobézyk, Philippe Planchon
Авторы текста: Thierry Sobézyk, Philippe Planchon
aco = acoustic guitar

bass intro

    e|-----------------------------------------------|
    b|---------------888-7h8-7h8-7h8-7h8-777-5-5-5-5-|
GTR G|-7777777777777-777-7---------------------------|
 1  D|-----------------------------------------------| 
    A|-----------------------------------------------|
    E|-----------------------------------------------|

    e|-----------------------------------------------|
    b|---------------888-7h8-7h8-7h8-7h8-777-5-5-5-5-|
GTR G|-7777777777777-777-7---------------------------|
 1  D|-----------------------------------------------|
    A|-----------------------------------------------|
    E|-----------------------------------------------|

    e|---------------------------------------------|
    b|-5-----------888-7h8-7h8-7h8-7h8-777-5-5-5-5-|
GTR G|---7-7777777-777-7---7---7---7---777-7-7-7-7-|
 1  D|---------------------------------------------|
    A|---------------------------------------------|
    E|---------------------------------------------|

    e|---------------------------------------------|
    b|-5-----------888-7h8-7h8-7h8-7h8-777-5-5-5-5-|
GTR G|---7-7777777-777-7---7---7---7---777-7-7-7-7-|
 1  D|---------------------------------------------|
    A|---------------------------------------------|
    E|---------------------------------------------|

    e|-3-----3-----3---5-----5---5---|
    b|-------------------------------|
GTR G|---0-0---0-0---0---0-0---0---0-|
 1  D|-------------------------------| 1,2,3,5,6,7,8
    A|-------------------------------|
    E|-------------------------------|

    e|-3-----3-----3---5-----5---2---2-|
    b|---------------------------------|
GTR G|---0-0---0-0---0---0-0---0---0---|
 1  D|---------------------------------| 3
    A|---------------------------------|
    E|---------------------------------|

    e|-----------------------------------------------|
    b|---------------888-7h8-7h8-7h8-7h8-777-5-5-5-5-|
GTR G|-7777777777777-777-7---7---7---7---777-7-7-7-7-|
 1  D|-----------------------------------------------| 
    A|-----------------------------------------------|
    E|-----------------------------------------------|

    e|-----------------------------------------------|
    b|---------------888-7h8-7h8-7h8-7h8-777-5-5-5-5-|
GTR G|-7777777777777-777-7---7---7---7---777-7-7-7-7-|
 1  D|-----------------------------------------------| 
    A|-----------------------------------------------|
    E|-----------------------------------------------|

    e|---------------------------------------------|
    b|-5-----------888-7h8-7h8-7h8-7h8-777-5-5-5-5-|
GTR G|---7-7777777-777-7---7---7---7---777-7-7-7-7-|
 1  D|---------------------------------------------|
    A|---------------------------------------------|
    E|---------------------------------------------|

    e|---------------------------------------------|
    b|----------7----------------------------------|
aco G|-9--7--7-----9--9--9--7----------------------|
    D|---------------------------------------------|
    A|---------------------------------------------|
    E|---------------------------------------------|

    e|---------------------------------------------|
    b|-5-----------888-7h8-7h8-7h8-7h8-777-5-5-5-5-|
GTR G|---7-7777777-777-7---7---7---7---777-7-7-7-7-|
 1  D|---------------------------------------------|
    A|---------------------------------------------|
    E|---------------------------------------------|

    e|---------------------------------------------|
    b|----------7----------------------------------|
aco G|-9--7--7-----9--9--9--7----------------------|
    D|---------------------------------------------|
    A|---------------------------------------------|
    E|---------------------------------------------|

    e|-3-----3-----3---5-----5---5---|
    b|-------------------------------|
GTR G|---0-0---0-0---0---0-0---0---0-|
 1  D|-------------------------------| 1,2,3,5,6,7,8
    A|-------------------------------|
    E|-------------------------------|

    e|-3-----3-----3---5-----5---2---2-|
    b|---------------------------------|
GTR G|---0-0---0-0---0---0-0---0---0---|
 1  D|---------------------------------| 3
    A|---------------------------------|
    E|---------------------------------|

    e|-----------------------------------------------|
    b|---------------888-7h8-7h8-7h8-7h8-777-5-5-5-5-|
GTR G|-7777777777777-777-7---7---7---7---777-7-7-7-7-|
 1  D|-----------------------------------------------| 
    A|-----------------------------------------------|
    E|-----------------------------------------------|

    e|-----------------------------------------------|
    b|-----------7-----------------------------------|
aco G|-9--7--7h9----9--9--9--7-----------------------|
    D|-----------------------------------------------|
    A|-----------------------------------------------|
    E|-----------------------------------------------|

    e|---------------------------------------------|
    b|-5-----------888-7h8-7h8-7h8-7h8-777-5-5-5-5-|
GTR G|---7-7777777-777-7---7---7---7---777-7-7-7-7-|
 1  D|---------------------------------------------|
    A|---------------------------------------------|
    E|---------------------------------------------|

    e|-----------------------------------------------|
    b|-----------7-----------------------------------|
aco G|-9--7--7h9----9--9--9--7-----------------------|
    D|-----------------------------------------------|
    A|-----------------------------------------------|
    E|-----------------------------------------------|

    e|---------------------------------------------|
    b|-5-----------888-7h8-7h8-7h8-7h8-777-5-5-5-5-|
GTR G|---7-7777777-777-7---7---7---7---777-7-7-7-7-|
 1  D|---------------------------------------------|
    A|---------------------------------------------|
    E|---------------------------------------------|

    e|-----------------------------------------------|
    b|-----------7-----------------------------------|
aco G|-9--7--7h9----9--9--9--7-----------------------|
    D|-----------------------------------------------|
    A|-----------------------------------------------|
    E|-----------------------------------------------|

    e|---------------------------------------------|
    b|-5-----------888-7h8-7h8-7h8-7h8-777-5-5-5-5-|
GTR G|---7-7777777-777-7---7---7---7---777-7-7-7-7-|
 1  D|---------------------------------------------|
    A|---------------------------------------------|
    E|---------------------------------------------|

    e|-----------------------------------------------|
    b|-----------7-----------------------------------|
aco G|-9--7--7h9----9--9--9--7-7--7--7--7------------|
    D|-----------------------------------------------|
    A|-----------------------------------------------|
    E|-----------------------------------------------|

---------------------------------------------------------------------

    e|-----------------------------------------------|
    b|---------------888-7h8-7h8-7h8-7h8-777-5-5-5-5-|
GTR G|-7777777777777-777-7---7---7---7---777-7-7-7-7-|
 1  D|-----------------------------------------------| 
    A|-----------------------------------------------|
    E|-----------------------------------------------|

    e|----------------------------------------------------|
    b|----------------------------------------------------|
GTR G|---7-7-7-7---7-7-7-7---7-7-7-7-7/9-9-9-/11-11-12-12-|
 2  D|-5---------5---------5------------------------------|     x4
    A|----------------------------------------------------|
    E|----------------------------------------------------|

    e|-----------------------------------------------|
    b|-----------7-----------------------------------|
aco G|-9--7--7h9----9--9--9--7-----------------------|
    D|-----------------------------------------------|
    A|-----------------------------------------------|
    E|-----------------------------------------------|

--------------------------------------------------------------------

    e|-----------------------------------------------|
    b|---------------888-7h8-7h8-7h8-7h8-777-5-5-5-5-|
GTR G|-7777777777777-777-7---7---7---7---777-7-7-7-7-|
 1  D|-----------------------------------------------| 
    A|-----------------------------------------------|
    E|-----------------------------------------------|

    e|----------------------------------------------------|
    b|----------------------------------------------------|
GTR G|---7-7-7-7---7-7-7-7---7-7-7-7-7/9-9-9-/11-11-12-12-|
 2  D|-5---------5---------5------------------------------|
    A|----------------------------------------------------|
    E|----------------------------------------------------|

    e|---------------------------------------------|
    b|---------------------------------------------|           x5
GTR G|---------------------------------------------|
 3  D|----------------------------------5-5--7--5-5|
    A|---------------------------------------------|
    E|---------------------------------------------|

    e|-----------------------------------------------|
    b|-----------7-----------------------------------|
aco G|-9--7--7h9----9--9--9--7-----------------------|
    D|-----------------------------------------------|
    A|-----------------------------------------------|
    E|-----------------------------------------------|

-----------------------------------------------------------------------

    e|--------------|
    b|--------------|
GTR G|---7-let ring-|
 2  D|-5------------|
    A|--------------|
    E|--------------|
Добавлено: 23.06.2015
Другие материалы по этой песне:

Страница создана 23.06.2015
http://primanota.ru/asylum-party/julia-chords.htm
Привет, Гость.
Предлагаем пройти революционный курс по гитаре.
Подарок от PrimaNota.Ru, забирай!