PrimaNota.ru - самый крупный в мире бесплатный архив песенных текстов, аккордов, табулатур и нот


Asylum Party - First Days Of Winter - бас-таба, видео

Регистрация Запомнить меня
Войти через:  Facebook Google Twitter Vk Yandex Mail.ru

Asylum Party - First Days Of Winter - бас-таба, видео

Печатать
Просмотров: 121
Авторы музыки: Pascale Macé, Thierry Sobézyk, Philippe Planchon

ASYLUM PARTY - FIRST DAYS OF WINTER

http://www.facebook.com/pages/Asylum-Party/134988086559467

G|-----------------------------------------|
D|-----------------------------------------|
A|-----------------------------------------|
E|-7----5----4----4----0----2----4----4----|

G|-----------------------11-11--11---------------------------------|
D|-14-14-13-13--13-14-14-----------14-14-13-13--13--14-14-13-------|
A|-----------------------------------------------------------14-12-|
E|-----------------------------------------------------------------|

G|-----------------------11-11--11--------------------------------|
D|-14-14-13-13--13-14-14-----------14-14-13-13-14--14-14-13-13-14-|
A|----------------------------------------------------------------| 
E|----------------------------------------------------------------|

play two bars x5

G|-----------------------------------------|
D|-----------------------------------------|
A|-----------------------------------------|
E|-7----5----4----4----0----2----4----4----|

G|-----------------------------|
D|-----------------------------|
A|-----------------------------| x2
E|-9---9--7---7--4---4--2---0--|

G|-----------------------11-11--11---------------------------------|
D|-14-14-13-13--13-14-14-----------14-14-13-13--13--14-14-13-------|
A|-----------------------------------------------------------14-12-|
E|-----------------------------------------------------------------|

G|-----------------------11-11--11--------------------------------|
D|-14-14-13-13--13-14-14-----------14-14-13-13-14--14-14-13-13-14-|
A|----------------------------------------------------------------| 
E|----------------------------------------------------------------|

G|-----------------------11-11--11---------------------------------|
D|-14-14-13-13--13-14-14-----------14-14-13-13--13--14-14-13-------|
A|-----------------------------------------------------------14-12-|
E|-----------------------------------------------------------------|

G|----------------------------|
D|----------------------------|
A|----------------------------| x2
E|-9---9--7---7--4---4--2---0-|

G|-----------------------11-11--11--------------------------------|
D|-14-14-13-13--13-14-14-----------14-14-13-13-14--14-14-13-13-13-|
A|----------------------------------------------------------------| 1,3,5
E|----------------------------------------------------------------|

G|-----------------------11-11--11---------------------------------|
D|-14-14-13-13--13-14-14-----------14-14-13-13--13--14-14-13-------|
A|-----------------------------------------------------------14-12-| 2,4
E|-----------------------------------------------------------------|
Добавлено: 17.11.2013
Другие материалы по этой песне:
  • Аккорды и текст

Страница создана 17.11.2013
http://primanota.ru/asylum-party/first-days-of-winter-chords.htm
Привет, Гость.
Предлагаем пройти революционный курс по гитаре.
Подарок от PrimaNota.Ru, забирай!