PrimaNota.ru - самый крупный в мире бесплатный архив песенных текстов, аккордов, табулатур и нот


Astronautalis - The Wondersmith And His Sons - таба, видео

Регистрация Запомнить меня
Войти через:  Facebook Google Twitter Vk Yandex Mail.ru

Astronautalis - The Wondersmith And His Sons - таба, видео

Печатать
Просмотров: 95
Уроки эстрадного вокала в Санкт-Петербурге
-------------------------------------------------------------------------------
                The Wondersmith and his Sons - Astronautalis
-------------------------------------------------------------------------------
Tabbed by: RonanW
E-mail: rwaters@tcd.ie


I haven't gone through the entire song. I've just figured out the main riff. So thought 
I'd throw it up because I've been looking for a tab for this song for a while now. 
It's really easy. Just moves back and forth from E to A. 

Tuning:

e|---------------------------------------------------------------------------|
B|---------------------------------------------------------------------------|
G|---------------------------------------------------------------------------|
D|-----9-------7-------9-------7---------------------------------------------|
A|-----7-------7-------7-------7---------------------------------------------|
E|-0-0---0-0-0---0-0-0---0-0-0-----------------------------------------------|

e|---------------------------------------------------------------------------|
B|---------------------------------------------------------------------------|
G|-----9-------7-------9-------7---------------------------------------------|
D|-----7-------7-------7-------7---------------------------------------------|
A|-0-0---0-0-0---0-0-0---0-0-0-----------------------------------------------|
E|---------------------------------------------------------------------------|


************************************

| /   slide up
| \   slide down
| h   hammer-on
| p   pull-off
| ~   vibrato
| +   harmonic
| x   Mute note
| b   Bend
| pb  Pre-bend
| br  Bend release
| pbr Pre-bend release
| brb Bend release bend

************************************
Добавлено: 12.10.2015
Другие материалы по этой песне:
  • Аккорды и текст

Страница создана 12.10.2015
http://primanota.ru/astronautalis/wondersmith-and-his-sons-chords.htm
Привет, Гость.
Предлагаем пройти революционный курс по гитаре.
Подарок от PrimaNota.Ru, забирай!