PrimaNota.ru - самый крупный в мире бесплатный архив песенных текстов, аккордов, табулатур и нот


Astroboy - Fun - таба, видео

Регистрация Запомнить меня
Войти через:  Facebook Google Twitter Vk Yandex Mail.ru

Astroboy - Fun - таба, видео

Печатать
Просмотров: 139
Уроки эстрадного вокала в Санкт-Петербурге
Subject: a/astroboy/fun.crd

FUN - Astroboy
------------------------------------------------------------------------

By Chris Raethke                Elvis@gil.com.au

INTRO

play 4 times
        pm.        pm.  pm..
e|---------------------------------------------------------------------|
B|---------------------------------------------------------------------|
G|---------------------------------------------------------------------|
D|-5--5-5---5--5-5---5--5-5---3--3-3-3---------------------------------|
A|-5--5-5---5--5-5---5--5-5---3--3-3-3---------------------------------|
E|-3--3-5---3--3-3---3--3-3---1--1-1-1---------------------------------|

play 4 times
e|---------------------------------------------------------------------|
B|---------------------------------------------------------------------|
G|---------------------------------------------------------------------|
D|-5-5-5-5--5-5-5-5--5-5-5---3--3-3-3----------------------------------|
A|-5-5-5-5--5-5-5-5--5-5-5---3--3-3-3----------------------------------|
E|-3-3-3-3--3-3-3-3--3-3-3---1--1-1-1----------------------------------|

VERSE
e|---------------------------------------------------------------------|
B|---------------------------------------------------------------------|
G|------------------7-7-7-7-7-7-7-7--9-9-9-9-9-9-7-7--5-5-5-5-5-5-5-5--|
D|-5-5-5-5-5-5-5-5--7-7-7-7-7-7-7-7--9-9-9-9-9-9-7-7--5-5-5-5-5-5-5-5--|
A|-5-5-5-5-5-5-5-5--5-5-5-5-5-5-5-5--7-7-7-7-7-7-5-5--3-3-3-3-3-3-3-3--|
E|-3-3-3-3-3-3-3-3-----------------------------------------------------|

CHORUS
                             pm...
e|---------------------------------------------------------------------|
B|---------------------------------------------------------------------|
G|----------4-4-4-------------5-5-5-5----------------------------------|
D|-5-5-5-5--4-4-4-2----2-2-2--5-5-5-5----------------------------------|
A|-5-5-5-5--2-2-2-2----2-2-2--3-3-3-3----------------------------------|
E|-3-3-3-3--------0----0-0-0-------------------------------------------|

BRIDGE (played palm muted then open)
e|---------------------------------------------------------------------|
B|---------------------------------------------------------------------|
G|---------------------------------------------------------------------|
D|-5-5--3-3--2-2--0-0--2-2--3-0----------------------------------------|
A|-5-5--3-3--2-2--0-0--2-2--3-0----------------------------------------|
E|-3-3--1-1--0-0--0-0--0-0--1-0----------------------------------------|

LYRICS and play order:

"1st Verse"
When I come home, I wanna see you
Sitting at the door
That smiling face, that happy smile
If I don't have to wait for a while

To marry you, cause I'm too young
All I wanna do is have some fun

"Chorus"
Just have some fun with you
Just have some fun with you
Just have some fun with you
Just have some fun with you

"2nd Verse"
We go and travel, we go and see
We go and see the sites of old
We see the sites, we sleep at night
And we'll never have to worry again

Cause I know if I wanna be with you all the time
I'm just gonna have to make you mine

"Chorus"

"Chorus riff over these lyrics"
I just wanna make you mine
I don't wanna sing out of time
Can you tell me what is right for me
All I know is I can't sing anymore

"BRIDGE"
Anymore.. (x3)

Trust You (x5)
Добавлено: 05.04.2012
Другие материалы по этой песне:
  • Аккорды и текст

Страница создана 05.04.2012
http://primanota.ru/astroboy/fun-chords.htm
Привет, Гость.
Предлагаем пройти революционный курс по гитаре.
Подарок от PrimaNota.Ru, забирай!