PrimaNota.ru - самый крупный в мире бесплатный архив песенных текстов, аккордов, табулатур и нот


Astra The 22s - Sun Up Sun Down - бас-таба, видео

Регистрация Запомнить меня
Войти через:  Facebook Google Twitter Vk Yandex Mail.ru

Astra The 22s - Sun Up Sun Down - бас-таба, видео

Печатать
Просмотров: 77
Уроки эстрадного вокала в Санкт-Петербурге
Title: Sun up, Sun Down
Artist: Astra the 22s
Album: Blue Venom
Tempo = 80
ElectricBassPick

Legend
L - tied note
x - dead note
h - hammer on/pull off
b - bend
s - slide
~ - vibrato
g - ghost note
> - accentuated note
t - trill
M - palm mute
. - staccato
P - popping (bass)
S - slapping (bass)
+ - tapping
W - wide vibrato
< - fade in
w - whammy bar
= - tremolo picking
v - brush up
^ - brush down
V - pick stroke up
n - pick stroke down


G |-------|-------|-------|-------|-------|-------|-------|-------|
D |-------|-------|-------|-------|-------|-------|-------|-------|
A |-------|-------|-------|-------|-------|-------|-------|-------|
D |-------|-------|-------|-------|-------|-------|-------|-------|


----------------|----------------------------------------------------|
----------------|----------------------------------------------------|
----------------|--------------------------------------5-------------|
--1--1--1--1----|--1-----------1-----------1-----1--4----------------|


----------------|----------------------------------------------------|
----------------|----------------------------------------------------|
----------------|--------------------------5-----------5-------------|
--1--1--1--1----|--1-----------1-----1--4--------1--4----------------|


----------------|----------------------------------------------------|
----------------|----------------------------------------------------|
----------------|--------------------------------------5-------------|
--1--1--1--1----|--1-----------1-----------1-----1--4----------------|


----------------|----------------------------|----------------------------|
----------------|----------------------------|----------------------------|
----------------|-----------------4--4L------|--4-----------------4-------|
--1-------------|--1-----1-------------------|-----6--6-----2-------------|


----------------------------|----------------------------|
----------------------------|----------------------------|
-----------------4--4L------|--4-----------2-----4-------|
--1-----1-------------------|-----6--6-------------------|


----------------------------|----------------------------|
----------------------------|----------------------------|
-----------------4--4L------|--4-----------------4-------|
--1-----1-------------------|-----6--6-----2-------------|


----------------------------|----------------------------|----------------|
----------------------------|----------------------------|----------------|
-----------------4--4L------|--4-----------2-----4-------|----------------|
--1-----1-------------------|-----6--6-------------------|--1--1--1--1----|


----------------|----------------|----------------|----------------|
----------------|----------------|----------------|----------------|
----------------|----------------|----------------|----------------|
--1--1--1--1----|--1--1--1--1----|--1--1--1--1----|--1--1--1--1----|


----------------------------------------------------|----------------|
----------------------------------------------------|----------------|
--------------------------------------5-------------|----------------|
--1-----------1-----------1-----1--4----------------|--1--1--1--1----|


----------------------------------------------------|----------------|
----------------------------------------------------|----------------|
--------------------------5-----------5-------------|----------------|
--1-----------1-----1--4--------1--4----------------|--1--1--1--1----|


----------------------------------------------------|----------------|
----------------------------------------------------|----------------|
--------------------------------------5-------------|----------------|
--1-----------1-----------1-----1--4----------------|--1--1--1--1----|


----------------------------------------------------|
----------------------------------------------------|
--------------------------5-----------5-------------|
--1-----------1-----1--4--------1--4----------------|


----------------------------|----------------------------|
----------------------------|----------------------------|
-----------------4--4L------|--4-----------------4-------|
--1-----1-------------------|-----6--6-----2-------------|


----------------------------|----------------------------|
----------------------------|----------------------------|
-----------------4--4L------|--4-----------2-----4-------|
--1-----1-------------------|-----6--6-------------------|


----------------------------|----------------------------|
----------------------------|----------------------------|
-----------------4--4L------|--4-----------------4-------|
--1-----1-------------------|-----6--6-----2-------------|


----------------------------|----------------------------|-------|
----------------------------|----------------------------|-------|
-----------------4--4L------|--4-----------2-----4-------|-------|
--1-----1-------------------|-----6--6-------------------|--1----|


----------------------------|----------------------------|
----------------------------|----------------------------|
-----------------4--4L------|--4-----------------4-------|
--1-----1-------------------|-----6--6-----2-------------|


----------------------------|----------------------------|
----------------------------|----------------------------|
-----------------4--4L------|--4-----------2-----4-------|
--1-----1-------------------|-----6--6-------------------|


----------------------------|----------------------------|
----------------------------|----------------------------|
-----------------4--4L------|--4-----------------4-------|
--1-----1-------------------|-----6--6-----2-------------|


----------------------------|----------------------------|
----------------------------|----------------------------|
-----------------4--4-------|--2--2--2--2--1--1--1--1----|
--1-----1-------------------|----------------------------|


----------------------------|----------------------------|
----------------------------|----------------------------|
-----------------4--4L------|--4-----------------4-------|
--1-----1-------------------|-----6--6-----2-------------|


----------------------------|----------------------------|
----------------------------|----------------------------|
-----------------4--4L------|--4-----------2-----4-------|
--1-----1-------------------|-----6--6-------------------|


----------------------------|----------------------------|
----------------------------|----------------------------|
-----------------4--4L------|--4-----------------4-------|
--1-----1-------------------|-----6--6-----2-------------|


----------------------------|----------------------------|-------||
----------------------------|----------------------------|-------||
-----------------4--4L------|--4-----------2-----4-------|-------||
--1-----1-------------------|-----6--6-------------------|--1----||
Добавлено: 25.03.2016
Другие материалы по этой песне:
  • Аккорды и текст

Страница создана 25.03.2016
http://primanota.ru/astra-22s/sun-up-sun-down-chords.htm
Привет, Гость.
Предлагаем пройти революционный курс по гитаре.
Подарок от PrimaNota.Ru, забирай!