PrimaNota.ru - самый крупный в мире бесплатный архив песенных текстов, аккордов, табулатур и нот


Astra The 22s - Got Me - бас-таба, видео

Регистрация Запомнить меня
Войти через:  Facebook Google Twitter Vk Yandex Mail.ru

Astra The 22s - Got Me - бас-таба, видео

Печатать
Просмотров: 102
Уроки эстрадного вокала в Санкт-Петербурге
Title: Got Me
Artist: Astra the 22's
Album: Blue Venom
Tempo = 132
ElectricBassPick

Legend
L - tied note
x - dead note
h - hammer on/pull off
b - bend
s - slide
~ - vibrato
g - ghost note
> - accentuated note
t - trill
M - palm mute
. - staccato
P - popping (bass)
S - slapping (bass)
+ - tapping
W - wide vibrato
< - fade in
w - whammy bar
= - tremolo picking
v - brush up
^ - brush down
V - pick stroke up
n - pick stroke down


G |----------------------------|----------------------------|
D |----------------------------|----------------------------|
A |----------------------------|----------------------------|
E |--2--2-----2-----2-----2----|-----2-----2--5--2--5-------|


----------------------------|----------------------------|
----------------------------|----------------------------|
----------------------------|----------------------------|
--5--2-----2-----2-----2----|-----2-----2--5--2--5-------|


----------------------------|----------------------------|
----------------------------|----------------------------|
----------------------------|----------------------------|
--5--2-----2-----2-----2----|-----2-----2--3--2--3-------|


----------------------------|----------------------------|
----------------------------|----------------------------|
----------------------------|----------------------------|
--3--2-----2-----2-----2----|-----2-----2--5--2--5-------|


----------------------------|----------------------------|
----------------------------|----------------------------|
----------------------------|----------------------------|
--5--2-----2-----2-----2----|-----2-----2--3--2--3-------|


----------------------------|----------------------------|
----------------------------|----------------------------|
----------------------------|--2--2--2--2--2--2--2--2----|
--0--0--0--0--0--0--0--0----|----------------------------|


----------------------------|----------------------------|
----------------------------|----------------------------|
----------------------------|----------------------------|
--5--2-----2-----2-----2----|-----2-----2--5--2--5-------|


----------------------------|----------------------------|
----------------------------|----------------------------|
----------------------------|--2--2--2--2--2--2--2--2----|
--0--0--0--0--0--0--0--0----|----------------------------|


----------------------------|----------------------------|
----------------------------|----------------------------|
--3--3--3--3--3--3--3--3----|--3--3--3--3--3--3--3--3----|
----------------------------|----------------------------|


----------------------------|----------------------------|
----------------------------|----------------------------|
----------------------------|----------------------------|
--2--------2--5--7L-7--2----|--5--7L-7--2--5--7--3-------|


----------------------------|----------------------------|
----------------------------|----------------------------|
----------------------------|----------------------------|
--2--------2--5--7L-7--2----|--5--7L-7--2--5--7--0-------|


----------------------------|----------------------------|
----------------------------|----------------------------|
----------------------------|----------------------------|
--2--------2--5--7L-7--2----|--5--7L-7--2--5--7--3-------|


----------------------------|----------------------------|
----------------------------|----------------------------|
----------------------------|----------------------------|
--2--------2--5--7L-7--2----|--5--7L-7--2--5--7----------|


----------------------------|----------------------------|
----------------------------|----------------------------|
----------------------------|----------------------------|
--2--------2--5--7L-7--2----|--5--7L-7--2--5--7--3-------|


----------------------------|----------------------------|
----------------------------|----------------------------|
----------------------------|----------------------------|
--2--------2--5--7L-7--2----|--5--7L-7--2--5--7--7--7----|


----------------------------|----------------------------|
----------------------------|----------------------------|
----------------------------|----------------------------|
--5--2-----2-----2-----2----|-----2-----2--3--2--3-------|


----------------------------|----------------------------|
----------------------------|----------------------------|
----------------------------|----------------------------|
--3--2-----2-----2-----2----|-----2-----2--5--2--5-------|


----------------------------|----------------------------|
----------------------------|----------------------------|
----------------------------|----------------------------|
--5--2-----2-----2-----2----|-----2-----2--3--2--3-------|


----------------------------|----------------------------|
----------------------------|----------------------------|
----------------------------|--2--2--2--2--2--2--2--2----|
--0--0--0--0--0--0--0--0----|----------------------------|


----------------------------|----------------------------|
----------------------------|----------------------------|
--3--3--3--3--3--3--3--3----|----------------------------|
----------------------------|--2--------2--5--7L-7--2----|


----------------------------|----------------------------|
----------------------------|----------------------------|
----------------------------|----------------------------|
--5--7L-7--2--5--7--3-------|--2--------2--5--7L-7--2----|


----------------------------|----------------------------|
----------------------------|----------------------------|
----------------------------|----------------------------|
--5--7L-7--2--5--7--0-------|--2--------2--5--7L-7--2----|


----------------------------|----------------------------|
----------------------------|----------------------------|
----------------------------|----------------------------|
--5--7L-7--2--5--7--3-------|--2--------2--5--7L-7--2----|


----------------------------|----------------------------|
----------------------------|----------------------------|
----------------------------|----------------------------|
--5--7L-7--2--5--7--7--7----|--2--------2--5--7L-7--2----|


----------------------------|----------------------------|
----------------------------|----------------------------|
----------------------------|----------------------------|
--5--7L-7--2--5--7--3-------|--2--------2--5--7L-7--2----|


----------------------------|----------------------------|
----------------------------|----------------------------|
----------------------------|----------------------------|
--5--7L-7--2--5--7--0-------|--2--------2--5--7L-7--2----|


----------------------------|----------------------------|
----------------------------|----------------------------|
----------------------------|----------------------------|
--5--7L-7--2--5--7--3-------|--2--------2--5--7L-7--2----|


----------------------------|----------------------------|
----------------------------|----------------------------|
----------------------------|--3--3--3--3--3--3--3--3----|
--5--7L-7--2--5--7--7-------|----------------------------|


----------------------------|----------------------------|
----------------------------|----------------------------|
--2--2--2--2--2--2--2--2----|--1--1--1--1--1--1--1--1----|
----------------------------|----------------------------|


----------------------------|----------------------------|
----------------------------|----------------------------|
--0--0--0--0--0--0--0--0----|--3--3--3--3--3--3--3--3----|
----------------------------|----------------------------|


----------------------------|----------------------------|
----------------------------|----------------------------|
--2--2--2--2--2--2--2--2----|--1--1--1--1--1--1--1--1----|
----------------------------|----------------------------|


----------------------------|----------------------------||
----------------------------|----------------------------||
--0--0--0--0--0--0--2--2----|--4--4--4--4--4--4--4--4----||
----------------------------|----------------------------||
Добавлено: 25.03.2016
Вам также может быть интересно:
Другие материалы по этой песне:
  • Аккорды и текст

Страница создана 25.03.2016
http://primanota.ru/astra-22s/got-me-chords.htm
Привет, Гость.
Предлагаем пройти революционный курс по гитаре.
Подарок от PrimaNota.Ru, забирай!