PrimaNota.ru - самый крупный в мире бесплатный архив песенных текстов, аккордов, табулатур и нот


Astor, Willy - Hoehenflug - таба, видео

Регистрация Запомнить меня
Войти через:  Facebook Google Twitter Vk Yandex Mail.ru

Astor, Willy - Hoehenflug - таба, видео

Печатать
Просмотров: 97
Willy Astor - Hoehenflug

Tuning: Drop D 
Tempo ca. 120 bpm



e -----------------|-----------------|-----------------|-----------------|
B -----------------|-----------------|-----------------|---------------3-|
G -------0-------0-|-------0-------2-|-------0-------0-|-------0---------|
D -----4-------4---|-----4-------4---|-----4-------4---|-----4-------4---|
A ---0-------0-----|---0-------0-----|---0-------0-----|---0-------0-----|
D -0-------0-------|-0-------0-------|-0-------0-------|-0-------0-------|


e -----------------|-----------------|-----------------|-----------------|
B -----------------|-----------------|-----------------|---------------3-|
G -------0-------0-|-------0-------2-|-------0-------0-|-------0---------|
D -----4-------4---|-----4-------4---|-----4-------4---|-----4-------4---|
A ---0-------0-----|---0-------0-----|---0-------0-----|---0-------0-----|
D -0-------0-------|-0-------0-------|-0-------0-------|-0-------0-------|


e -----------------|-------------0----|-----------------|-----------------|
B --------3------3-|-------3------ 0h2|-------2-------2-|-------2-----3-0-|
G ------0------0---|-----0------------|-----0-------0---|-----0-----------|
D ---4-------4-----|---4-------4------|---4-------4-----|---4-------4-----|
A -2-------2-------|-2-------2--------|-0-------0-------|-0-------0-------|
D -----------------|------------------|-----------------|-----------------|

  _____________________________________________________    _________________
 |1                                                       |2
e -----------------|-----------------|-----------------:||-----------------|
B -------0-------0-|-------0-------0-|---------------3-:||-------0-------0-|
G -----0-------0---|-----0-------0---|-------0---------:||-----0-------0---|
D ---0-------0-----|---0-------0-----|-----4-------4---:||---4-------4-----|
A -----------------|-----------------|---0-------0-----:||-----------------|
D -5-------5-------|-2-------2-------|-0-------0-------:||-5-------5-------|


e -----------------|-------0---------|-0---------------|
B -------0-------0-|-------------0---|-0---------------|
G -----0-------0---|-----0---------0-|-0---------------|
D ---4-------4-----|---2-------2-----|-2---------------|
A -----------------|-0-------0-------|-0---------------|
D -2-------2-------|-----------------|-----------------|


e -----------------|-----------------|------------------|---0-----0-------|
B ---7---7-----5---|-8-----7-----5---|-7-----8-----10---|-----0---0-0-----|
G -------7-----6---|---9---7-----6---|---7---9-----11---|-------6-----6-6-|
D -----0-----0---0-|-----0-----0---0-|-----0-----0----0-|-----------------|
A -----------------|-----------------|------------------|-0---------0-----|
D -0-------0-------|---------0-------|-0-------0--------|-----------------|


e -3-----2-----0---|-3-----2-----0---|-3-----2-----0---|-----------------|
B ---0-----0-----0-|---0-----0-----0-|---0-----0-----0-|-------2-2-------|
G -----0-----0-----|-----0-----0-----|-----0-----0-----|-----2-----2-----|
D -2---------------|-1---------------|-0---------------|---2---------2---|
A -----------------|-----------------|-----------------|-0-------------0-|
D -----------------|-----------------|-----------------|-----------------|


e -------------------|-----------------|-----------------|-----------------|
B -7-------7-----5---|-8-----7-----5---|-7-----5-----3---|-3---------------|
G ---------7-----6---|---9---7-----6---|---7---6-----4---|---4---3---4-----|
D -------0-----0---0-|-----0-----0---0-|-----0-----0---0-|-----4-------4---|
A -------------------|-----------------|-----------------|-2-------2-----2-|
D -0---------0-------|---------0-------|-0-------0-------|-----------------|


e -----------------|-----------------|-0---------------|---------------0-|
B -2-----3-----2---|-0-----2-----3---|-------3-----2---|---------3-------|
G ---4-----4-------|-----0-----0-----|-----2-----2-----|-------0---0-----|
D -----4-----4---4-|---0-----0-----0-|---2-----2-----2-|-----4-------4---|
A -0---------------|-----------------|-0---------------|---0-------------|
D -----------------|-5---------------|-----------------|-0---------------|


e -----------------|---------------0-|-----------------|--------------------|
B ---3-------3-----|---------3-------|-10---10-----8---|-11------10-----8---|
G -----0---0-------|-------0---0-----|------10-----9---|----12---10-----9---|
D -------4-------4-|-----4-------4---|----0------0---0-|-------0------0---0-|
A -------------0---|---0-------------|-----------------|--------------------|
D -0---------------|-0---------------|--0------0-------|--0---------0-------|


e -------------------|-------0---------|-----------------|-----------------|
B -10------8-----6---|-6---------6-----|-6-----6---------|-5-----5---------|
G ----10---9-----7---|---7---------7---|---5-------5-----|---7-------7-----|
D -------0-----0---0-|-----8---------8-|-----8-------8---|-----8-------8---|
A -------------------|-----------------|-----------------|-----------------|
D --0--------0-------|-8-------8-------|-5-------5-----5-|-5-------5-----5-|


e -----------------|-----------------|-----------------|-----------------|
B -5-----5---------|-5-----5---------|-------3-5-----5-|-8-----8-----6---|
G ---7-------7-----|---6-------6-----|-----2-------4---|-----7-------7---|
D -----8-------8---|-----7-------7---|---3-------5-----|---8-------7---7-|
A -0-------0-----0-|-0-------0-----0-|-----------------|-----------------|
D -----------------|-----------------|-0-------0-------|-0-------0-------|


e -----------------|-----------------|-----------------|-----------------|
B -------3-------3-|-2-----2---------|-----------------|-----------------|
G -----2-------2---|---2-------------|-------0-------0-|-------0-------2-|
D ---2-------2-----|-----2-----------|-----4-------4---|-----4-------4---|
A -0-------0-------|-0-------0-------|---0-------0-----|---0-------0-----|
D -----------------|-----------------|-0-------0-------|-0-------0-------|


e -----------------|-----------------|-----------------|-----------------|
B -----------------|-----------------|-----------------|---------------3-|
G -------0-------0-|-------0-------2-|-------0-------0-|-------0---------|
D -----4-------4---|-----4-------4---|-----4-------4---|-----4-------4---|
A ---0-------0-----|---0-------0-----|---0-------0-----|---0-------0-----|
D -0-------0-------|-0-------0-------|-0-------0-------|-0-------0-------|


e -----------------|-------------0----|-----------------|-----------------|
B --------3------3-|-------3------ 0h2|-------2-------2-|-------2-----3-0-|
G ------0------0---|-----0------------|-----0-------0---|-----0-----------|
D ---4-------4-----|---4-------4------|---4-------4-----|---4-------4-----|
A -2-------2-------|-2-------2--------|-0-------0-------|-0-------0-------|
D -----------------|------------------|-----------------|-----------------|


e -----------------|-----------------|-------0---------|
B -------0-------0-|-------0-------0-|-------------0---|
G -----0-------0---|-----0-------0---|-----0---------0-|
D ---4-------4-----|---4-------4-----|---2-------2-----|
A -----------------|-----------------|-0-------0-------|
D -5-------5-------|-2-------2-------|-----------------|


e -----------------|-----------------|------------------|---0-----0-------|
B ---7---7-----5---|-8-----7-----5---|-7-----8-----10---|-----0---0-0-----|
G -------7-----6---|---9---7-----6---|---7---9-----11---|-------6-----6-6-|
D -----0-----0---0-|-----0-----0---0-|-----0-----0----0-|-----------------|
A -----------------|-----------------|------------------|-0---------0-----|
D -0-------0-------|---------0-------|-0-------0--------|-----------------|


e -3-----2-----0---|-3-----2-----0---|-3-----2-----0---|-----------------|
B ---0-----0-----0-|---0-----0-----0-|---0-----0-----0-|-------2-2-------|
G -----0-----0-----|-----0-----0-----|-----0-----0-----|-----2-----2-----|
D -2---------------|-1---------------|-0---------------|---2---------2---|
A -----------------|-----------------|-----------------|-0-------------0-|
D -----------------|-----------------|-----------------|-----------------|


e -------------------|-----------------|-----------------|-----------------|
B -7-------7-----5---|-8-----7-----5---|-7-----5-----3---|-3---------------|
G ---------7-----6---|---9---7-----6---|---7---6-----4---|---4---3---4-----|
D -------0-----0---0-|-----0-----0---0-|-----0-----0---0-|-----4-------4---|
A -------------------|-----------------|-----------------|-2-------2-----2-|
D -0---------0-------|---------0-------|-0-------0-------|-----------------|


e -----------------|-----------------|-0---------------|---------------0-|
B -2-----3-----2---|-0-----2-----3---|-------3-----2---|---------3-------|
G ---4-----4-------|-----0-----0-----|-----2-----2-----|-------0---0-----|
D -----4-----4---4-|---0-----0-----0-|---2-----2-----2-|-----4-------4---|
A -0---------------|-----------------|-0---------------|---0-------------|
D -----------------|-5---------------|-----------------|-0---------------|


e -----------------|-----------------|-------------0---|-2---------------|
B ---3-------3-----|-----3-----------|---------3-----3-|-3---------------|
G -----0---0-------|---0-------0-----|-------0---0-----|-2---------------|
D -------4-------4-|---------4-----4-|-----4-----------|-4---------------|
A -------------0---|-------2-----0---|---0-------------|-0---------------|
D -0---------------|-0---------------|-0---------------|-0---------------|

http://www.willyastor.de/servus/
Добавлено: 28.08.2013
Другие материалы по этой песне:
  • Аккорды и текст

Страница создана 28.08.2013
http://primanota.ru/astor-willy/hoehenflug-chords.htm
Привет, Гость.
Предлагаем пройти революционный курс по гитаре.
Подарок от PrimaNota.Ru, забирай!