PrimaNota.ru - самый крупный в мире бесплатный архив песенных текстов, аккордов, табулатур и нот


Пьяццолла Астор - Tango Suite - 2 Andante - таба, видео

Регистрация Запомнить меня
Войти через:  Facebook Google Twitter Vk Yandex Mail.ru

Пьяццолла Астор - Tango Suite - 2 Andante - таба, видео

Печатать
Просмотров: 255
Guitar I  - E A D G B E
Guitar II - E A D G B E

  Andante Q=80  4/4

  Gtr I
  H    Q  E E   E E E E       E E  E E   Q  Q   H       Q  Q   H
|-------------|-------7--------------7-|-8p=7--12-----|-7p=5--10-------|
|-------------|-----8---------7-8-10---|--------------|----------------|
|-----------4-|-5h9--------------------|--------------|----------------|
|-------------|------------------------|--------------|----------------|
|-------------|------------------------|--------------|----------------|
|-------------|------------------------|--------------|----------------|
|
| Gtr II
| W             H       a a a H          H      H       H      H
|-------------|------------------------|--------------|----------------|
|-------------|------------------------|-6------5-----|-5------3-------|
|-------------|-0-------------5--------|--------4p=2--|--------2p=0----|
|-------------|---------------7--------|-6------------|-4--------------|
|-------------|---------2h3h5-6--------|-5------4-----|-3------2-------|
|-------------|-0----------------------|--------------|----------------|
                                         H      Q  Q    H      Q  Q

                                          <
          |-3-|                                                  |--3--|
   Q.     S S S E  E E E   E E E E Q   E  E   E E E E    Q   +E  S  S  S
|---------------8\-------|-------5-8---7----|-------7\---2---(2)---------|
|-10------8p7h8------6-5-|-5p4-7------------|-----8--------------8-10-12-|
|------------------5-----|----------------4-|-5-9------------------------|
|------------------------|------------------|----------------------------|
|------------------------|------------------|----------------------------|
|------------------------|------------------|----------------------------|
|
|                                             <
|  E  E Q       E  E E E   E E E E Q  +E  E   E E E S  S E E  Q
|------------------------|------------------|----------------------------|
|-------2----------------|---------8--(8)---|----------------------------|
|-----0------------------|-----5-8----------|-----0-----------5----------|
|----------------------7-|---7--------------|--------------7-------------|
|--1---------------8-----|------------------|---2---3--5-6---------------|
|---------------5----8---|-7----------------|-0--------------------------|

   Q    +S   S  S  S  Q   Q     E  a  a  E E  E  Q   Q
|--------------------14p=12--|------------------12p=10--|
|-13---(13)p12p11h12---------|-12-10h12p10-9-10---------|
|----------------------------|--------------------------|
|----------------------------|--------------------------|
|----------------------------|--------------------------|
|----------------------------|--------------------------|
|
|  E E   Q            H         E        E Q     H
|----------------------------|--------------------------|
|--------6------------5------|-------------5-----3------|
|---------------------2------|-------------------0------|
|----6-----------------------|-----------4--------------|
|--5------------------4------|--3----------------2------|
|----------------------------|--------------------------|

                            H.=H                 Q=70
                                >
   a  a  E E E E E  E E E   E E S S   S   S Q  Q
|----------------8\-------|-------------------------|
|-13p12p10-8-7-8------6p5-|-5p4-------------8--7----|
|-------------------5-----|-----7-6---5---4---------|
|-------------------------|-------------------------|
|-------------------------|-------------------------|
|-------------------------|-------------------------|
|
|                               >
|                               |---3---|
|        E E Q   E  E E E   Q   E   E   E   H
|-------------------------|-------------------------|
|------------2------------|-----------------4-------|
|----------0--------5---4-|-----------------2-------|
|-------------------3---2-|---------4---5-----------|
|--------1----------------|-----5-----------2-------|
|----------------5----3---|-2-----------------------|

   W                           H         H
|-^0----------------------||-^-0-------^-0--------|
|-^0----------------------||-^-0-------^12--------|
|-^0----------------------||-^12-------^12--------|
|-^4----------------------||-^10-------^10--------|
|-^2----------------------||-^-0-------^12--------|
|-^0----------------------||-----------^10--------|
|
|    <
|  E E E E S S E  S S S S      E E E E   E  E E E
|-----------------------7-||--10-----7--10----7-8-|
|--------------0------8---||-------8-------10-----|
|-------------------9-----||-----9----------------|
|--------2-4h5---10-------||----------------------|
|----2h3------------------||----------------------|
|--0----------------------||----------------------|
   H       H

       <             >
    S  S S S S S S S S S S S S     S    S     S
|--------------------------------------------------|
|----------0-3-2-5-2---3-----2---------------------|
|--------0-----------2---4---------2---------------|
|------0-------------------5------------4----------|
|---------------------------------------------5----|
|---3----------------------------------------------|
|   H                H
|
|   H.                       T  T  T T  T  T  T  T
|-^10----------------------------------------------|
|--------------------------------------------10-12-|
|-^-9--------------------------------9-11-12-------|
|-^-9------------------------9-10-12---------------|
|-^-9----------------------------------------------|
|--------------------------------------------------|

                          H=H
                            <
   H        a H             E  E E E E E       E     E
|-------------5---------|------5-------------------------|
|-^6----------6---------|----------8---6-------------5---|
|-^3----------7---------|------5---5---------------------|
|-^7----------8---------|--------------8-------------7---|
|-^5--------3-----------|---8----7---5-------------------|
|-^3--------------------|----------------------8---------|
|                           Q    Q   Q         Q
|
|                           <
|  E  E E E   E E  E  E     H.            a  a S  S  S S
|---------5---8---------|-^-8--------------------------8-|
|-13\-3-6-------8s10-11-|-^10-----------------------10---|
|-----------------------|-^-9------------12p11p9-10------|
|-----------------------|-^10----------------------------|
|-----------------------|-^-8----------------------------|
|-----------------------|--------------------------------|

  Q=80
   E  Q.              E  Q.
|----------------------------------------|
|-----6------------------6---------------|
|-----7------------------7---------------|
|-----7------------------6---------------|
|----------------------------------------|
|--7------------------0------------------|
|
|  E  E   S  S  S  S  E.    S  S  S S  S
|-10-12--15-13-10----12----------10-8----|
|-----------------10------------------12-|
|---------------------------9-10---------|
|----------------------------------------|
|----------------------------------------|
|----------------------------------------|

   E  E E   E   E  E E     E      E  Q.             E     Q.
|------------------------------|---------------------------------------|
|-----5-----5------5-------5---|-----4--------------------6------------|
|-----5-----5------5-------5---|-----5--------------------5------------|
|--9----7-------5--------------|-----5--------------------4------------|
|--------------------9---------|--------------------5------------------|
|------------------------------|--5------------------------------------|
|  Q    Q       Q    Q
|
|  Q.      +E   E  E S  S  S S    E.    S  S  S S S S  S  S  S S  S  E
|-10------(10)---------------8-|-10-----8-13-11s8------------8-9-10-11-|
|--------------13p12-9-10-12---|------------------8-9-10-11------------|
|------------------------------|---------------------------------------|
|------------------------------|---------------------------------------|
|------------------------------|---------------------------------------|
|------------------------------|---------------------------------------|

    E   E E  E   E      E     E     E
|-----------------------------------------||
|-------3----3----------3-----------3-----||
|-------3----3----------3-----------3-----||
|---7-----5------3------------------------||
|-----------------------------7-----------||
|-----------------------------------------||
|   Q     Q      Q            Q
|
|  +E   Q    E  +S   S  S  S  S  S  S  S
|-(11)-10---15-(15)-------------17s15-----||
|-------------------15-------15-------15--||
|----------------------14-15--------------||
|-----------------------------------------||
|-----------------------------------------||
|-----------------------------------------||

 5/4
  E   Q.           +Q        E   Q.
|--------------------------------------||
|-----2------------(2)-----------6-----||
|-----3------------(3)-----------6-----||
|-----3------------(3)-----------8-----||
|--------------------------------------||
|-3--------------------------8---------||
|
| S S S  S S S S S  S  S S S S S Q   E
|--------------------------------------||
|--------1s2---2----2----2---2---4---2-||
|-----3------5---5-----5---5---5-------||
|---3----------------------------------||
|--------------------------------------||
|--------------------------------------||

                                     H.=H         Q=H=H        Q=80
 4/4
  E     E    E     E    E   E    E   E     H        H
|----------------------------------------|----------------------|
|----------------------------------------|----------6-----------|
|-------5----------5--------5------------|----------7-----------|
|------------------------------------7---|-7--------6-----------|
|-8----------7----------5----------------|----------------------|
|--------------------------------8-------|-7--------0-----------|
|
| S  S  S S  S  S  S  S S S S  S S S S S   E E  E E E  E  E  E
|----------------------------------------|----------------------|
|---------8s10----10-13-6---6-10-5---5---|--------8-9-10-13-12--|
|------10------12---------9--------7---5-|-7-9-10---------------|
|---10-----------------------------------|----------------------|
|----------------------------------------|----------------------|
|----------------------------------------|----------------------|

   E  E  E  E  E  E  E  E    E  E  E   E  E  E  E  E
|-------------------------|--------------------------|
|-----5-----5-----5-----5-|-----------10-----------8-|
|-----5-----5-----5-----5-|-----8------7-----6-----5-|
|--9-----7-----5----------|-----9------8-----7-----6-|
|--------------------9----|--8-----7------6-----5----|
|-------------------------|--------------------------|
|  Q     Q     Q     Q       Q     Q      Q     Q
|
|  Q     Q     Q     Q       Q     Q      Q     Q
|-[0]---------------------|-[0]----------------------|
|-------------[0]---------|--------------[0]---------|
|-------[2]---------------|-------[2]----------------|
|-------------------[2]---|--------------------[2]---|
|-------------------------|--------------------------|
|-------------------------|--------------------------|

  H.=H              Q=60  Q=80
   E  E  E  E  E  E  E  E   a   E E E E    E  E E E
|-------------------------|-----------7---10----7-8---|
|-----------6-----------4-|---------8--------10-------|
|-----4-----3-----2-----1-|-9p==7h9-------------------|
|-----5-----4-----3-----2-|---------------------------|
|--4-----3-----2-----1----|---------------------------|
|-------------------------|---------------------------|
|  Q     Q     Q     Q
|
|  Q     Q     Q     Q          H       a  H
|-[0]---------------------|---^-0----------7----------|
|-------------[0]---------|---^-0----------8----------|
|-------[2]---------------|---^12----------9----------|
|-------------------[2]---|---^10-------7-10----------|
|-------------------------|---^-0-------5-------------|
|-------------------------|---------------------------|

    H.                       T  T  T T  T  T  T  T
|-^10----------------------------------------------|
|--------------------------------------------10-12-|
|-^-9--------------------------------9-11-12-------|
|-^-9------------------------9-10-12---------------|
|-^-9----------------------------------------------|
|--------------------------------------------------|
|
|   S  S S S S S S S S S S S S     S    S     S
|----------------0---------------------------------|
|----------0-3-2---2---3-----2---------------------|
|--------0-----------2---4---------2---------------|
|------0-------------------5------------4----------|
|---------------------------------------------5----|
|---3----------------------------------------------|
    H                H

   E  e e e   E e  e  e     H.           a  a S  S  S S
|---------5---8---------|-^-8------------8h10p8----------|
|-13\-3-6-------8-10-11-|-^10-------------------10-------|
|-----------------------|-^-9----------------------10-9--|
|-----------------------|-^10----------------------------|
|-----------------------|-^-8----------------------------|
|-----------------------|--------------------------------|
|
|  H        a H             E  E E E E E      E     E
|-------------5---------|------5-------------------------|
|-^6----------6---------|----------8---6------------5----|
|-^3----------7---------|------5---5----------------2----|
|-^7----------8---------|--------------8-----------------|
|-^5--------3-----------|---8----7---5--------3----------|
|-^3--------------------|--------------------------------|
                            Q    Q   Q        Q

                                                                  H.=H
  E E  e e  e e e e            H       S S S S S S S S   E E  e e  e e e e
|-------------7-8-5---------|--7---------------5-3-2---|-2------------------|
|--------8-10---------------|----------------5-------5-|---2--3-5--7-8-7-8--|
|-8h9-11--------------------|--------------4-----------|--------------------|
|---------------------------|------------2-------------|--------------------|
|---------------------------|--------------------------|--------------------|
|---------------------------|--------------------------|--------------------|
|
| H         H       a a a a    E E E E E   E   E   E     E Q.      H
|---------------------------|--------------------------|---3------^2--------|
|-4-------------------------|--------------------------|---5------^2--------|
|-2---------5---------------|----9---7-----5-------4---|---4------^2--------|
|-----------4---------------|----9---9-----5-------4---|----------^6--------|
|-2---------0-------6h7h8h9-|-10---9---7-------5-------|-4------------------|
|---------------------------|--------------------------|----------^2--------|
                               Q   Q   Q       Q

        Q=50 Q=80
  H       Q.      E    E E E E       E E  E E   Q  Q   H       Q  Q   H
|-------------------||-------7--------------7-|-8p=7--12-----|-7p=5--10------|
|-7-----<12>--------||-----8---------7-8-10---|--------------|---------------|
|-----------------4-||-5h9--------------------|--------------|---------------|
|-------------------||------------------------|--------------|---------------|
|-------------------||------------------------|--------------|---------------|
|-------------------||------------------------|--------------|---------------|
|
| Q  H        +E  E    H       a a a H          H      H       H      H
|-------------------||------------------------|--------------|---------------|
|-5s=4--------(4)---||------------------------|-6------5-----|-5------3------|
|-5-----------(5)---||-0-------------5--------|--------4p=2--|--------2p=0---|
|-7-----------(7)---||---------------7--------|-6------------|-4-------------|
|-------------------||---------2h3h5-6--------|-5------4-----|-3------2------|
|-7-----------(7)---||-0----------------------|--------------|---------------|
  H.          +E  E                             H      Q  Q    H      Q  Q

          |-3-|                                                  |--3--|
   Q.     S S S E  E E E   E E E E Q   E  E   E E E E    Q   +E  S  S  S
|---------------8\-------|-------5-8---7----|-------7\---2---(2)------------|
|-10------8p7h8------6-5-|-5p4-7------------|-----8--------------8-10-12----|
|------------------5-----|----------------4-|-5-9---------------------------|
|------------------------|------------------|-------------------------------|
|------------------------|------------------|-------------------------------|
|------------------------|------------------|-------------------------------|
|
|  E  E Q       E  E E E   E E E E Q  +E  E   E E E S  S E E  Q
|------------------------|------------------|-------------------------------|
|-------2----------------|---------8--(8)---|-------------------------------|
|-----0------------------|-----5-8----------|-----0-----------5-------------|
|----------------------7-|---7--------------|--------------7----------------|
|--1---------------8-----|------------------|---2---3--5-6------------------|
|---------------5----8---|-7----------------|-0-----------------------------|

   Q    +S   S  S  S  Q   Q
|--------------------14p=12--|
|-13---(13)p12p11h12---------|
|----------------------------|
|----------------------------|
|----------------------------|
|----------------------------|
|
|  E E   Q            H
|----------------------------|
|--------6------------5------|
|---------------------2------|
|----6-----------------------|
|--5------------------4------|
|----------------------------|

   E  a  a  E E  E  Q   Q     a  a  E E E E E  E E E
|------------------12p=10--|----------------8\----------|
|-12-10h12p10-9-10---------|-13p12p10-8-7-8------6p5----|
|--------------------------|-------------------5--------|
|--------------------------|----------------------------|
|--------------------------|----------------------------|
|--------------------------|----------------------------|
|
|  E        E Q     H               E E Q   E  E E E
|--------------------------|----------------------------|
|-------------5-----3------|------------2---------------|
|-------------------0------|----------0--------5---4----|
|-----------4--------------|-------------------3---2----|
|--3----------------2------|--------1-------------------|
|--------------------------|----------------5----3------|

      H.=H                Q=50              H=H
                                            |---5----|
  E E S S   S   S Q  Q     H.               S S  S S S
|-----------------------|-^0---------------------------|
|-5p4-------------8--7--|-^0---------------------------|
|-----7-6---5---4-------|-^0---------------------------|
|-----------------------|-^4---------------------------|
|-----------------------|-^2-----------------------6-7-|
|-----------------------|-^0----------------7-8-10-----|
|
|     |---3---|
| Q   E   E   E   H        E  E S S S S E E Q
|-----------------------|------------------------------|
|-----------------4-----|------------------------------|
|-----------------2-----|------------------------------|
|---------4---5---------|---------2-4-5-7-9------------|
|-----5-----------2-----|-----2-3----------------------|
|-2---------------------|--0---------------------------|

                     Q=80
  |--------9---------|
  S  S S S  S S S  S S  E E E  E  E E
|-------------------------8-7-12-10-7---|
|--------------------8-10---------------|
|-------------7-9-10--------------------|
|------7-9-10---------------------------|
|-8-10----------------------------------|
|---------------------------------------|
|
| Q                     Q   Q     Q
|---------------------------------------|
|---------------------------------------|
|-5---------------------7---9-----4-----|
|---------------------------------3-----|
|-5---------------------7---8-----------|
|---------------------------------3-----|

                                     <
   W                                 Q   Q   Q   Q      E E E E E E E E
|----------------------------------|-----------------|-------------------|
|-^8-------------------------------|-----------------|----8---6---4---3--|
|-^7-------------------------------|-----------------|-------------------|
|-^9-------------------------------|-1---3---5---6---|----8---8---6---5--|
|-^7-------------------------------|-----------------|--6---5---3---1----|
|----------------------------------|-1---3---4---6---|-------------------|
|                                                       Q   Q   Q   Q
|
|                                    <
|  S S S S S S S S S S S S S S S S   E E E E E E E E    W
|----------0-------1---------------|---------------8-|-^6----------------|
|------------1-------3---------5-8-|-----------8-6---|-^4----------------|
|--------0-----2-------4-----5-----|-----5-8-7-------|-^7----------------|
|------2---------3-------5-7-------|-6-8-------------|-^5----------------|
|----3-----------------------------|-----------------|-------------------|
|----------------------------------|-----------------|-------------------|

  E.     S  S  S S S  S S S S E E   E.      S  S   S  S S  S  S  S  S E E
|------------------7-10-8-----7s5-|---------------------9-12-10-------9s7-|
|----------------8----------8-----|------------------10------------10-----|
|--------------9----------9-------|---------------11------------11--------|
|--------9-10---------------------|--------11-12--------------------------|
|---------------------------------|---------------------------------------|
|---------------------------------|---------------------------------------|
|
| S  S E   +Q         H             S  S E    +Q           H
|---------------------------------|---------------------------------------|
|---------------------------------|---------------------------------------|
|---------------------5-----------|------------------------7--------------|
|------5---(5)--------------------|------7----(7)-------------------------|
|----7----------------5-----------|----9-------------------7--------------|
|-5-------------------------------|-7-------------------------------------|

  H.=H
  S S  S S  S  S  S S S S S S  S S S S
|----------------10-9--------------8-7--|
|---------------------------------------|
|---9-11-9-12-11--------7-9-7-10-9------|
|---------------------------------------|
|---------------------------------------|
|---------------------------------------|
|
| Q         Q         Q        Q
|---------------------------------------|
|---------------------------------------|
|-4---------3---------2--------1--------|
|---------------------------------------|
|-4-------------------2-----------------|
|-----------2------------------0--------|

                >
  S S S S S S S S S S S S S S S S
|-------------6-5-------------4-3-||
|---------------------------------||
|---5-7-5-8-7-------3-5-3-6-5-----||
|---------------------------------||
|---------------------------------||
|---------------------------------||
|
| >
| E   E   E   E   E   E   E   E
|---------------------------------||
|-------------4---------------2---||
|-----4-------5-------3-------3---||
|-----5---------------3-----------||
|---------5---------------3-------||
|-5---------------3---------------||

 Lento Q=60
   E E  S S E E E  E E   H          E E Q
|----------------------|--------------------------|
|----------------------|--------------------------|
|---------------7--5---|-0------------------------|
|-----------6-5------6-|--------------3-1---------|
|-10-8--6-5-----6--5---|-6--5-3-1-----------------|
|-----------8-6------6-|----------4-3-------------|
|                        E  E S S E H
|
|  E E  E   E E E  E E   H.             S  S S S
|----------------------|--------------------------|
|---------------8------|-----------------------8--|
|-----------8-7---10-7-|-3-------------------8----|
|--7-8-10--------------|------------------10------|
|----------------------|-6------------------------|
|----------------------|--------------------------|

  Q     E  E     Q     Q
|---------------------------||
|---------11-----9-----8----||
|-8-----8--8-----------7----||
|----8-------12-10-----6----||
|-8----11-10-----8----------||
|----------------------6----||
| E  E  E  S  S  H
|
| E  E  E  E     E  E  E  E
|-------8-11----10-15-13-10-||
|-9-11----------------------||
|---------------------------||
|---------------------------||
|---------------------------||
|---------------------------||

 5/4
      <                >
                                        |----6----|
   S  S S S S  S S S S S S S   S  S S S s s s s s s
|-------------------------------------------3-4-5-6-||
|---------8-7----------6-------5------4-5-7---------||
|-------8------7-----6-----5--------4---------------||
|-----8----------7-6-----5--------4-----------------||
|--6------------------------------------------------||
|---------------------------------------------------||
|  H        H.
|
|  <                           >
|  H.                         +H
|---------------------------------------------------||
|-11-------------------------(11)-------------------||
|---------------------------------------------------||
|---------------------------------------------------||
|---------------------------------------------------||
|---------------------------------------------------||

  Q=80
 4/4
  E   E    E  E E   E    E  E   E   E    E  E E   E    E  E
|-7---7----7--7-7---9----7----|-6---6----6--6-6---7----6----|
|---------------------------9-|---------------------------7-|
|-----------------------------|-----------------------------|
|-----------------------------|-----------------------------|
|-----------------------------|-----------------------------|
|-----------------------------|-----------------------------|
|
| S S S S +Q    S S S S +Q      S S S S +Q    S S S S +Q
|-----------------------------|-----------------------------|
|-------7-(7)---------7-(7)---|-------4-(4)---------4-(4)---|
|-----6-------------6---------|-----3-------------3---------|
|---4-------------6-----------|---3-------------3-----------|
|---------------4-------------|---------------2-------------|
|-4---------------------------|-2---------------------------|
  Q        Q    Q        Q      Q        Q    Q        Q

  E   E    E  E E   E    E  E
|-4---4----4--4-4---6----4------|
|---------------------------6---|
|-------------------------------|
|-------------------------------|
|-------------------------------|
|-------------------------------|
|
| S S S S +Q    S S S S +Q
|-------------------------------|
|-------2-(2)---------2-(2)-----|
|-----1-------------1-----------|
|---1-------------1-------------|
|---------------1---------------|
|-0-----------------------------|
  Q        Q    Q        Q

                                             H.=H
  Q.     E E E E E   H      a a a Q.   S S   H       +E  E S S S S
|------------------|-----------------------|------------------------|
|-7--------7-6-4-7-|-6------7p6p4h6----4p2-|-4-------(4)------------|
|--------6---------|-----------------------|-------------8-8-8-8-8--|
|------------------|-----------------------|------------------------|
|------------------|-----------------------|------------------------|
|------------------|-----------------------|------------------------|
|
| E  E Q   E E Q     E E Q        H          E E E E  E  E Q
|------------------|-----------------------|------------------------|
|------------------|-1-2-1-----------------|-----2----2----2--------|
|-6--5-6---6-5-6---|-3------------3--------|---3---5-----5----------|
|----------4-------|--------------3--------|------------------------|
|-6----------------|-4---------------------|-3----------------------|
|----------4-------|--------------2--------|------------------------|
  H        H         H            H          H               H

                   Q=60                                            Q=80
                      >
  Q.     E E E E E    H         H                H           Q.    E
|------------------|--------------------------|----------------------||
|------------------|-[4]-------[4]------------|-[4]----------------0-||
|-8------8-8-8-8-8-|--------------------------|-------------[4]------||
|------------------|--------------------------|----------------------||
|------------------|--------------------------|----------------------||
|------------------|--------------------------|----------------------||
|
|                     >
|                                                     |-3-|
| E  E E E E E Q      E  E E E  E  E Q  a a a    E  E E E E  Q   E E
|------------------|--------------------------|-----------5----------||
|------1---1---1---|-------0----0----0--------|--------------8---7---||
|----2---4---4-----|-----1---3-----3----------|-------5-8------------||
|------------------|--------------------------|-----7----------------||
|-3----------------|--3-----------------------|----------------------||
|------------------|--------------------4h5h6S|==7-------------------||
  H        H          H         H                H           H

  E E E E       E E  E E   Q  Q   H
|-------7--------------7-|-8p=7--12-----|
|-----8---------7-8-10---|--------------|
|-5h9--------------------|--------------|
|------------------------|--------------|
|------------------------|--------------|
|------------------------|--------------|
|
| H       a a a H          H      H
|------------------------|--------------|
|------------------------|-6------5-----|
|-0-------------5--------|--------4p=2--|
|---------------7--------|-6------------|
|---------2h3h5-6--------|-5------4-----|
|-0----------------------|--------------|
                           H      Q  Q

                         |-3-|
  Q  Q   H        Q.     S S S E  E E E
|-7p=5--10-----|---------------8\--------|
|--------------|-10------8p7h8------6-5--|
|--------------|------------------5------|
|--------------|-------------------------|
|--------------|-------------------------|
|--------------|-------------------------|
|
| H      H        E  E Q       E  E E E
|--------------|-------------------------|
|-5------3-----|-------2-----------------|
|--------2p=0--|-----0-------------------|
|-4------------|----------------------7--|
|-3------2-----|--1---------------8------|
|--------------|---------------5----8----|
  H      Q  Q

                                       |--3--|
  E E E E Q   E E   E E E E    Q   +E  S  S  S
|-------5-8---7---|-------7\---2---(2)---------|
|-5p4-7-----------|-----8--------------8-10-12-|
|---------------4-|-5-9------------------------|
|-----------------|----------------------------|
|-----------------|----------------------------|
|-----------------|----------------------------|
|
| E E E E Q.    E   E E E S  S E E  Q
|-----------------|----------------------------|
|---------8-------|----------------------------|
|-----5-8---------|-----0-----------5----------|
|---7-------------|--------------7-------------|
|-----------------|---2---3--5-6---------------|
|-7---------------|-0--------------------------|

   Q    +S   S  S  S  Q   Q     E  a  a  E E  E  Q   Q
|--------------------14p=12--|------------------12p=10----|
|-13---(13)p12p11h12---------|-12-10h12p10-9-10-----------|
|----------------------------|----------------------------|
|----------------------------|----------------------------|
|----------------------------|----------------------------|
|----------------------------|----------------------------|
|
|  E E   Q            H         E        E Q     H
|----------------------------|----------------------------|
|--------6------------5------|-------------5-----3--------|
|---------------------2------|-------------------0--------|
|----6-----------------------|-----------4----------------|
|--5------------------4------|--3----------------2--------|
|----------------------------|----------------------------|

                            H.=H
   a  a  E E E E E  E E E   E E S S   S   S Q  Q
|----------------8\-------|-----------------------|
|-13p12p10-8-7-8------6p5-|-5p4-------------8--7--|
|-------------------5-----|-----7-6---5---4-------|
|-------------------------|-----------------------|
|-------------------------|-----------------------|
|-------------------------|-----------------------|
|
|                               |---3---|
|        E E Q   E  E E E   Q   E   E   E   H
|-------------------------|-----------------------|
|------------2------------|-----------------4-----|
|----------0--------5---4-|-----------------2-----|
|-------------------3---2-|---------4---5---------|
|--------1----------------|-----5-----------2-----|
|----------------5----3---|-2---------------------|

                                  Q=40
  W
|-0---------------------------------*|
|-0---------------------------------*|
|-0---------------------------------*|
|-4---------------------------------*|
|-2---------------------------------*|
|-0---------------------------------*|
|
|   E  E   E   E   E   E   E   E
|-----------------[0]-[2]-[3]-[5]---*|
|-----[0]-[1]-[3]-------------------*|
|-----------------------------------*|
|-----------------------------------*|
|-----------------------------------*|
|-0---------------------------------*|
  W

Duration Legend
---------------

W - whole    H - half    Q - quarter    E - 8th    S - 16th    T - 32nd
a - acciaccatura   + - note tied to previous   . - note dotted

Irregular groupings are notated above the duration line. Duration letters will
always appear directly above the note/fret numbers they represent the duration
for.  Duration letters with no fret number below them represent rests. Low
melody durations appear below the staff

Tablature Legend
----------------

 h   - hammer-on
 p   - pull-off
 /\  - slide into or out of (from/to "nowhere")
 s   - legato slide
  - natural harmonic
[n]  - artificial harmonic
 =   - hold bend; also acts as connecting device for hammers/pulls
Добавлено: 11.03.2012
Другие материалы по этой песне:
  • Аккорды и текст

Страница создана 11.03.2012
http://primanota.ru/astor-piazzolla/tango-suite-2-andante-chords.htm
Привет, Гость.
Предлагаем пройти революционный курс по гитаре.
Подарок от PrimaNota.Ru, забирай!