PrimaNota.ru - самый крупный в мире бесплатный архив песенных текстов, аккордов, табулатур и нот


Пьяццолла Астор - Tango Suite - 1 Deciso - таба, видео

Регистрация Запомнить меня
Войти через:  Facebook Google Twitter Vk Yandex Mail.ru

Пьяццолла Астор - Tango Suite - 1 Deciso - таба, видео

Печатать
Просмотров: 289
Gtr I (E A D G B E) - 'gtr 1'
Gtr II (E A D G B E) - 'gtr 2'

  Allegro Q=120
                    $
 4/4
  Gtr I
  W                 E E E E Q   S S S S   S S E S S E E e Q
|-----------------|-------x-------------|-------x-x-x-----x-------|
|-----------------|-x-----------x-x-x-x-|-x-x-x---------x---------|
|-----------------|---------------------|-------------------------|
|-----------------|---------------------|-------------------------|
|-----------------|---------------------|-------------------------|
|-----------------|---------------------|-------------------------|
|
| Gtr II
| H    Q  S S S S   E E e E E e S S S S   E   E e   E E e S S S S
|-----------------|-----------0---------|---------------1---------|
|-----------------|-----1---------------|-------3-----0-----------|
|-----------------|---------2-----------|-----1-------------------|
|-----------------|---2---------3p2-----|-----------0-----2p0-----|
|-----------------|-0-----3---------5p3-|-2-------------------3p2-|
|---------1h2h3h4-|---------------------|-------------------------|

  Q.     E +Q    S S E     S S S S E E S S E Q         E E E E E E S S S S
|-x------x-(x)---x-x-x---|-x-x-x-x-x---x-x-x---------|---x-x---x-x---------|
|------------------------|---------------------------|-x-----x-----x-x-x-x-|
|------------------------|---------------------------|---------------------|
|------------------------|---------------------------|---------------------|
|------------------------|---------------------------|---------------------|
|------------------------|---------------------------|---------------------|
|
| E  E e E  E  e S S S S   E   E   e E E   e S S S S   E E e E E e S S S S
|------0-------5---------|---------5-------7---------|---------------------|
|------------------------|---------------------------|-------------6p5-----|
|----2------5------------|-----5-------7-------------|-----7-----6-----7p6-|
|----------------7p5-----|---------------------------|---5-----5-----------|
|-3------7-----------8p7-|-6---------8-------7p5-----|---------------------|
|------------------------|-----------------------8p7-|-6-----5-------------|

                                                  6/8
  E   E   E E Q   S S S S   E E E E E E S S E      E E   E E E   E
|-----------x-----x-x-x-x-|-x-----x-----x-x-x---||-x-------x-------||
|-x-----------------------|---x-x---x-x---------||-x-------x-------||
|-------------------------|---------------------||-x-------x-------||
|-------------------------|---------------------||-x-------x-------||
|-------------------------|---------------------||-x-------x-------||
|-------------------------|---------------------||-x-------x-------||
|
| S S S S E E E E E   E     E E e E E e S S S S    E S S E E S S E
|-------------------------|-----------2-5-4-2-5-||-4-------1-------||
|-----------6---6-----6---|-----4---------------||---3-------0-----||
|-7-----------------------|---2-----4-----------||-----4-------1---||
|---7-------7---7-----7---|---------------------||-------3-------0-||
|-----8p7-5---4---3-------|-2-----6-------------||-----------------||
|-------------------------|---------------------||-----------------||

 4/4                        6/8
  E E   E E Q     E   E       Q.         Q.             Q.        Q.
|-x-------x-------x-------||-------------------------|-[5]--------------------|
|-x-------x-------x-------||------------[5]----------|-----------[5]----------|
|-x-------x-------x-------||-[2]---------------------|------------------------|
|-x-------x-------x-------||-------------------------|------------------------|
|-x-------x-------x-------||-------------------------|------------------------|
|-x-------x-------x-------||-------------------------|------------------------|
|
| E S S E E S S E S S S S     E   S S E  E  S S  S S    E  S S E  E  S S S S
|-------------------------||-----------------------7-|---------------------5--|
|-3-----------------------||----------8-----7--------|---------6-----5--------|
|---1-----4---------------||--------9---------8------|-------7---------6------|
|-----3-----3-------------||-----10-------------10---|-----8-------------8----|
|-------2-----5-----------||--0----------0-----------|--0---------0-----------|
|---------------4-0h2h4p0-||-------------------------|------------------------|
                              Q.         Q.             Q.        Q.

   Q.        Q.            Q.        Q.
|-----------------------|-----------------------|
|-----------[5]---------|-----------------------|
|-[2]-------------------|-[2]-------------------|
|-----------------------|-----------[2]---------|
|-----------------------|-----------------------|
|-----------------------|-----------------------|
|
|  E  S S E  E  S S S S    E  S S E  E  S S S S
|---------------------3-|---------------------1-|
|---------4-----3-------|---------2-----1-------|
|-------5---------4-----|-------3---------2-----|
|-----6-------------6---|-----4-------------4---|
|--0---------0----------|--0---------0----------|
|-----------------------|-----------------------|
   Q.        Q.            Q.        Q.

   Q.          Q.            Q.         Q       E
|-------------------------|-[5]-----------------------||
|-------------[5]---------|---------------------------||
|-[2]---------------------|---------------------------||
|-------------------------|---------------------------||
|-------------------------|---------------------------||
|-------------------------|---------------------------||
|
|  E  S S S S  E  S S S S    E  S S S S S S S S S S
|-----------0-------------|---------------------------||
|-----0-----------------4-|---------------------------||
|-------1---------3p0-----|---------------------------||
|---------3-----------2---|---------------------------||
|--0-----------0----------|--0--0-0-0-0-0-0-0-0-0-0---||
|-------------------------|---------------------------||
   Q.          Q.

 4/4
  E  E  e E E  e  S S S S   E  E  e E E  e  S S S S   E  E  e E  E  e  S S S S
|-------1------5----------|-------3------6----------|-------5------10----------|
|-----------3-------------|----2------5-------------|----3---------------------|
|----2------------3p2-----|-----------------2p0-----|-----------10-----7p5-----|
|-0-------3-----------5p3-|-2-------5-----------3p2-|-3-------7------------8p7-|
|-------------------------|-------------------------|--------------------------|
|-------------------------|-------------------------|--------------------------|
|
| E  Q.     E  Q.           E  Q.     E  Q.           E  Q.      E  Q.
|---10--------10----------|---12--------12----------|---10---------10----------|
|---10---------9----------|---11--------10----------|---10---------11----------|
|----7---------7----------|----9---------9----------|----7----------7----------|
|-------------------------|-------------------------|--------------------------|
|-------------------------|-------------------------|--------------------------|
|-------------------------|-------------------------|--------------------------|

  E  E   e E E  e  S S S S   E  E  e E E  e  S S S S
|-------10-----12----------|-----------------6p5-----|
|----6-------8-------------|-------8------7------8p7-|
|--------------------------|----5------5-------------|
|-6--------8-------7p5-----|-------------------------|
|----------------------8p7-|-6-------5---------------|
|--------------------------|-------------------------|
|
| E  Q.      E  Q.           E  Q.     E  Q.
|---13---------12----------|---10--------10----------|
|---12---------11----------|----8--------10----------|
|---10----------9----------|----7---------8----------|
|--------------------------|-------------------------|
|--------------------------|-------------------------|
|--------------------------|-------------------------|

  S S  S S E   E    E   E   E   E
|--------------6--------6-------6----|
|-8----------------------------------|
|---7----------7--------7-------7----|
|------8p7-5--------4----------------|
|---------------------------8--------|
|------------------------------------|
|
| E    E   S S S S  S S S S S S S S
|-----10--------------------6p5------|
|------8---8-------10-----------8----|
|------7-----7--------7-----------7--|
|--------------8p7------8p7----------|
|------------------------------------|
|------------------------------------|

  E  E e E  E  e  S S S  S
|--------------7-10-9-7-10-||
|------9----5--------------||
|----7---------------------||
|--------6-----------------||
|-7------------------------||
|--------------------------||
|
| Q.     E +Q     S S S  S
|--------------------------||
|--------------------------||
|--------------------------||
|-8------------------------||
|--------7-(7)-------------||
|-----------------0-0-0--0-||

 6/8                      4/4
  E   S S E   E   S S E    E S S E E S S E S S S S
|-9-----------6---------||-3------------------------||
|-----8-----------5-----||---2-----5----------------||
|-------9-----------6---||-----3-----3--------------||
|---------8-----------5-||-------2-----5------------||
|-----------------------||---------------4-0h2h4p0--||
|-----------------------||--------------------------||
|
| S S E   S S S S E   E    E S S E E S S E E   E
|-----------------------||--------------------------||
|-----------------------||--------------------------||
|-----------------------||--------------------------||
|-----------------------||--------------------------||
|-0-0-0---0-0-0-0-0---0-||-0-0-0-0-0-0-0-0-0--------||
|-----------------------||--------------------------||

 6/8
  e  Q           e    Q
|----8----------------7---------|
|---10----------------9---------|
|---10----------------9---------|
|-0--------------0--------------|
|-------------------------------|
|-------------------------------|
|
| E  S  S  S  S  S  S S  S S  S
|---------------12--------------|
|---10-13-12-10----12-9---------|
|-----------------------10-9----|
|----------------------------12-|
|-------------------------------|
|-------------------------------|

  e Q          e    Q          e Q       e   Q
|---6---------------5--------|---4-----------3-------|
|---8---------------7--------|---6-----------5-------|
|---8---------------7--------|---6-----------5-------|
|-0------------0-------------|-0---------0-----------|
|----------------------------|-----------------------|
|----------------------------|-----------------------|
|
| E S  S  S S  S  S S S S  S   E S S S S S S S S S S
|-------------10-------------|-----------8-----------|
|---8-11-10-8----10-7--------|---6-9-8-6---8-5-------|
|---------------------8-7----|-----------------6-5---|
|-------------------------10-|---------------------8-|
|----------------------------|-----------------------|
|----------------------------|-----------------------|

                                            To Coda
  e    Q       e   Q         e   Q       e   Q         E S S S S S S E E
|------2-----------1-------|-------------------------|-3-3-3-3-3-3-3-3-3-||
|------4-----------3-------|-----5-----------4-------|-3-3-3-3-3-3-3-3-3-||
|------4-----------3-------|-----6-----------5-------|-2-2-2-2-2-2-2-2-2-||
|-0------------0-----------|-0---7-------0---6-------|-------------------||
|--------------------------|-------------------------|-------------------||
|--------------------------|-------------------------|-------------------||
|
| <            >             <           >
| S S  S S S S S S S S S S   S S S S S S S S S S S S   E S S S S S S E E
|------------7-6-----------|-----------5-4-----------|-------------------||
|----------7-----6---------|---------5-----4---------|-------------------||
|--------8---------7-------|-------6---------5-------|-------------------||
|-7h9-10-------------9p8p6-|-5h7-8-------------7p6p4-|-2-2-2-2-2-2-2-2-2-||
|--------------------------|-------------------------|---2-2-2-2-2-2-2-2-||
|--------------------------|-------------------------|---0-0-0-0-0-0-0-0-||

 4/4
  E E  Q        E E Q            E E Q  E E S S S S
|----------------------|----------------------------|
|----------------------|----------------------------|
|-------------------9--|-------------8------7p5-4h7-|
|-----10----------7----|-----------7------6---------|
|---7------------------|----------------------------|
|----------------------|----------------------------|
|
| Q    Q  a a a Q   Q     a  a a Q   Q  Q   S S S S
|----------------------|----------------------------|
|----------------------|----------------------------|
|----------------------|----------------------------|
|----------------------|----------------------------|
|----------------------|----------------------------|
|-5----5--4h5h7S8---8--|-12p10p8S7---7--0---1h2h3h4S|

  S S Q   E       S S Q   E
|----------------------------|
|-----------------5p3-5------|
|-5p4-5----------------------|
|---------7---------------7--|
|----------------------------|
|----------------------------|
|
| Q     Q   a a a Q     Q
|----------------------------|
|----------------------------|
|----------------------------|
|----------------------------|
|----------------------------|
|-5-----5---4h5h7S8-----8----|

  S S E +S  S S S Q.      E     Q  e E +E  E S S S S
|---------------5-4-----------|----------------------|
|-7p5-7-(7)---7-----------5---|-8----8-(8)---8p6-5h8-|
|-----------4-----------------|----7-------6---------|
|-----------------------------|----------------------|
|-----------------------------|----------------------|
|-----------------------------|----------------------|
|
| E   E  Q        E E S S S S   Q  Q    Q    S S S S
|-----------------------------|----------------------|
|-----------------------------|----------------------|
|--------8--------------------|----------------------|
|-----7-----------------------|----------------------|
|-----------------------------|----------------------|
|-7---------------0h1-1h2h3h4-|-6--6----5----6h7h8h9-|

  E E  E  E  +E   S  S  S  S S  S
|---5S10-13-(13)-12p10-------0-----|
|-6--------------------10----------|
|-------------------------10-------|
|------------------------------12--|
|----------------------------------|
|----------------------------------|
|
| E E  E  E   E   E     E    E
|----------------------------------|
|------6----------6----------------|
|----------------------------------|
|---7---------7--------------7-----|
|-5-------4-------------3----------|
|----------------------------------|

    <
  E e e E +S  S S S Q         E e  e  E  +S   S S S S S S S
|-------7-(7)-------7-------|--------12-(12)-10-7-0-0-------|
|-------------7-------------|-----12------------------3-----|
|-----8---------8-----------|---9-----------------------4---|
|---7-------------7---------|-----------------------------2-|
|---------------------------|-------------------------------|
|---------------------------|-------------------------------|
|
| <
| Q   Q    Q        S S S S   Q    Q      Q         S S S S
|---------------------------|-------------------------------|
|---------------------------|-------------------------------|
|---------------------------|-------------------------------|
|---------------------------|-------------------------------|
|-2---2---------------------|-------------------------------|
|----------2--------2h4-5p2-|-4----4------0---------1h2h3h4-|

  E E S S S S E  E  S  S  S  S
|---8-7p5-------12-10-----------|
|---------8p6---------13-12p10--|
|-------------------------------|
|-------------------------------|
|-------------------------------|
|-------------------------------|
|
| E E E   E   E  E  S  S  S  S
|----------------0--------------|
|-----1-------------------------|
|-------------2-----------------|
|---2---------------3p=2--------|
|-0-------3---------------5p=3--|
|-------------------------------|

  E  E  S  S  S  S  S S  S  S S  S  S S
|---13-12p10----------------------------|
|------------13-12-10s9-12--------------|
|--------------------------10p9---------|
|-------------------------------12p10p9-|
|---------------------------------------|
|---------------------------------------|
|
|                   <
| E  E  E     E     E    E    S  S  S S
|------------------------1--------------|
|-------3-----------0-------------------|
|----1----------------------------------|
|-------------0---------------2p=0------|
|-2---------------------------------3p2-|
|---------------------------------------|

  E e E   E   E e E   E     E e S S S S S S S S S S S S
|-----------------0---0---|-----5---5---4---3---2---1-----|
|-----1---1---------------|-----4---4---3---2---1---0-----|
|---------------2-4p2-4p2-|---2---2---2---4---3---2---1---|
|---2-3p2-3p2-------------|-------------------------------|
|-------------------------|-------------------------------|
|-------------------------|-------------------------------|
| E e S S S S E e S S S S
|
| Q   S S S S Q   S S S S   Q   Q       Q       Q
|-------------------------|-------------------------------|
|-------------------------|-------------------------------|
|-------------------------|-------------------------------|
|-------------------------|-------------------------------|
|-------------3---3h7p5p3-|-2---2-------------------------|
|-5---5p4h5h7-------------|-------------0-------0---------|

  H.=H                                        
  E E  E  E  E  E  E  E   E  E  E E E E  E  E
|-----------------13p12-|---------------11p10-||
|---8S10h11-11p10-------|-------8h9-9p8-------||
|------------------0----|---10----------------||
|---0-------------------|---------------------||
|-----------------------|----------------8----||
|------------9----------|----8------7---------||
| E Q.       Q     Q      E  Q.     Q    Q
|
| E E  Q     E  E  Q      E  E  Q   E E  Q
|-----------------------|---------------------||
|-----------------------|---------------------||
|------7-----------6----|-------5--------4----||
|---5-----------5-------|----3--------3-------||
|-----------------------|---------------------||
|-6----------5----------|-4---------3---------||

 Meno mosso (less moved) Q=100
                          <
  E  e   Q   e  Q    e    Q     e  E  +S   S  S   S Q
|-------10-----10------|-10-------10-(10)----10--14-9--|
|---10------10------10-|-------10---------10-----------|
|----------------------|-------------------------------|
|----------------------|-------------------------------|
|----------------------|-------------------------------|
|----------------------|-------------------------------|
|
|                         <
| e  Q.      e  Q.        e Q.         e      Q.
|----------------------|-------------------------------|
|----4----------4------|----4-----------------4--------|
|----5----------5------|----5-----------------5--------|
|----6----------6------|----6-----------------6--------|
|----------------------|-------------------------------|
|-2----------2---------|--2------------2---------------|

  +S   S  S   S E.  S S S E  +S  S S S
|-(9)----10--14-9----------------------|
|-----10-----------10-7----------------|
|-----------------------7-6--(6)-------|
|--------------------------------7-4---|
|------------------------------------5-|
|--------------------------------------|
|
|  e      Q.          e   Q.
|--------------------------------------|
|---------4---------------4------------|
|---------5---------------5------------|
|---------6---------------6------------|
|--------------------------------------|
|--2------------------2----------------|

  H      +E  E  S S  S  S    e  Q.     Q.       E
|----------------------10-|-12-14-----17-------17--|
|-------------------10----|-14-15-----15-------15--|
|-----------------7-------|-----------14-------14--|
|------------0--7---------|------------------------|
|-4------(4)--------------|------------------------|
|-------------------------|------------------------|
|
| e Q.    e  Q.              e  Q   e  Q   S S  E
|-------------------------|-----8------8-----------|
|---4--------4------------|-----9------9-----------|
|---5--------5------------|-----8------8-----------|
|---6--------6------------|----10-----10-----------|
|-------------------------|--4------4------4-4--4--|
|-2-------2---------------|--2------2------2-2--2--|

   +Q      Q    +E   Q.          S  S  S  S  Q    +H
|-(17)----17---(17)-17--------|----------17-17---(17)--------|
|-(15)----15---(15)-15--------|-------15----15---(15)--------|
|-(14)----14---(14)-14--------|----14-------14---(14)--------|
|-----------------------------|-14---------------------------|
|-----------------------------|------------------------------|
|-----------------------------|------------------------------|
|
|   e   Q    e   Q      S S E    e     Q       e   Q   S S E
|-------8--------8------------|--------8-----------8---------|
|-------9--------9------------|--------9-----------9---------|
|-------8--------8------------|--------8-----------8---------|
|------10-------10------------|-------10----------10---------|
|---4--------4----------4-4-4-|--4-------------4-------4-4-4-|
|---2--------2----------2-2-2-|--2-------------2-------2-2-2-|

   Q.      E  +H           Q        S  S E +E  Q.
|-17------17-(17)--------|----------------------------------|
|-15------15-(15)--------|---------------7-(7)--------------|
|-14------14-(14)--------|-------------7-------6------------|
|------------------------|----------7-----------------------|
|------------------------|----------------------------------|
|------------------------|----------------------------------|
|
|  e   Q   e   Q   S S E   S S S S +H             S S S S
|------8-------8---------|----------------------------------|
|------9-------9---------|----------------------------------|
|------8-------8---------|-------1-(1)------------------1---|
|-----10------10---------|-----1----------------------1-----|
|--4-------4-------4-4-4-|---3----------------------3-------|
|--2-------2-------2-2-2-|-4----------------------4---------|

  Q        S   S  S S  S S  E  +Q
|-------------------9-10p9-10-(10)-------|
|----------------10----------------------|
|-------------11-------------------------|
|---------12-----------------------------|
|----------------------------------------|
|----------------------------------------|
|
| S S S S +H                    S  S S S
|-------4-(4)----------------------------|
|-----4----------------------------------|
|---5---------------------------1--------|
|-6--------------------------------1-----|
|------------------------------------3---|
|--------------------------------------4-|

  Q        S  S E +E  E S S S  S   S S S  S  H.
|--------------------------------|----------10-----|
|---------------7-(7)-------7h10-|-9p7---10--------|
|-------------7-------6---7------|-----7-----------|
|----------7------------7--------|-----------------|
|--------------------------------|-----------------|
|--------------------------------|-----------------|
|
| S S S S +H            S S S  S   S S S  S +H.
|--------------------------------|--------4-(4)----|
|--------------------------------|-----4-----------|
|-------1-(1)------------------1-|---5-------------|
|-----1---------------------1----|-6---------------|
|---3---------------------3------|-----------------|
|-4---------------------4--------|-----------------|

   Q.        E +Q      Q        Q.       E   +Q      Q
|-^2---------2-(2)-----2-----|-^2--------2---(2)-----2-----|
|-^3---------3-(3)-----3-----|-^3--------3---(3)-----3-----|
|-^4---------4-(4)-----4-----|-^4--------4---(4)-----4-----|
|-^4---------4-(4)-----4-----|-^4--------4---(4)-----4-----|
|-^2---------2-(2)-----2-----|-^2--------2---(2)-----2-----|
|----------------------------|-----------------------------|
|
|  E  S S  E E  S  S E E S S    E  S S E S S  S  S E S S E
|-10--9-7--------------------|-----------------------------|
|---------10-8--7--5---------|-----------------------------|
|--------------------7-6-4---|-----------------------------|
|--------------------------7-|--5--4-------------4h5-5h7h9-|
|----------------------------|-------7p5-4h5h=7------------|
|----------------------------|-----------------------------|

   Q.   E +Q    Q      Q.   E +Q   Q
|-^4----4-(4)---4---|-^4----4-(4)--4----|
|-^5----5-(5)---5---|-^5----5-(5)--5----|
|-^6----6-(6)---6---|-^6----6-(6)--6----|
|-^6----6-(6)---6---|-^6----6-(6)--6----|
|-^4----4-(4)---4---|-^4----4-(4)--4----|
|-------------------|-------------------|
|
|  H.           Q      H       H
|-------------------|-------------------|
|-------------------|-------------------|
|--6----------------|-[6]---------------|
|--------------[6]--|---------[6]-------|
|-------------------|-------------------|
|-------------------|-------------------|

         Q.        E +Q      Q        Q.       E   +Q     Q
|-------^2---------2-(2)-----2-----|-^2--------2---(2)----2-----|
|-------^3---------3-(3)-----3-----|-^3--------3---(3)----3-----|
|-------^4---------4-(4)-----4-----|-^4--------4---(4)----4-----|
|-------^4---------4-(4)-----4-----|-^4--------4---(4)----4-----|
|-------^2---------2-(2)-----2-----|-^2--------2---(2)----2-----|
|----------------------------------|----------------------------|
|
|  a  a  E  S S  E E  S  S E E S S    E  S S E S S  S S E S S E
|-10h12p10--9-7--------------------|----------------------------|
|---------------10-8--7--5---------|--------------------------7-|
|--------------------------7-6-4---|----------------4h6h7-7h9---|
|--------------------------------7-|--5--4-5-7-5-7--------------|
|----------------------------------|----------------------------|
|----------------------------------|----------------------------|

   Q.   E +Q    Q      Q.   E +Q   Q
|-------------------|-----------------|
|-^3----3-(3)---3---|-^3----3-(3)--3--|
|-^3----3-(3)---3---|-^3----3-(3)--3--|
|-^5----5-(5)---5---|-^5----5-(5)--5--|
|-^5----5-(5)---5---|-^5----5-(5)--5--|
|-^3----3-(3)---3---|-^3----3-(3)--3--|
|
|  H.           Q      H       H
|-------------------|-----------------|
|--8----------------|-[8]-------------|
|--------------[7]--|---------[7]-----|
|-------------------|-----------------|
|-------------------|-----------------|
|-------------------|-----------------|

         Q.        E +Q      Q        Q.       E   +Q        Q
|-------^2---------2-(2)-----2-----|-^4--------4---(4)-------4---------|
|-------^3---------3-(3)-----3-----|-^5--------5---(5)-------5---------|
|-------^4---------4-(4)-----4-----|-^6--------6---(6)-------6---------|
|-------^4---------4-(4)-----4-----|-^6--------6---(6)-------6---------|
|-------^2---------2-(2)-----2-----|-^4--------4---(4)-------4---------|
|----------------------------------|-----------------------------------|
|
|  a  a  E  S S  E E  S  S E E S S    E  S S E S S  E  S  S  S S  S  S
|-10h12p10--9-7--------------------|---------------------------9-11-12S|
|---------------10-8--7--5---------|-----------4-5--7--9-10-12---------|
|--------------------------7-6-4---|-------4-6-------------------------|
|--------------------------------7-|--6--7-----------------------------|
|----------------------------------|-----------------------------------|
|----------------------------------|-----------------------------------|

   Q.   E +Q    Q      Q.   E +Q   Q
|-^5----5-(5)---5---|-^5----5-(5)--5----|
|-^6----6-(6)---6---|-^6----6-(6)--6----|
|-^7----7-(7)---7---|-^7----7-(7)--7----|
|-^7----7-(7)---7---|-^7----7-(7)--7----|
|-^5----5-(5)---5---|-^5----5-(5)--5----|
|-------------------|-------------------|
|
|  H.           Q      H       H
|-13----------------|---------[5]-------|
|-------------------|-------------------|
|-------------------|-[7]---------------|
|--------------[7]--|-------------------|
|-------------------|-------------------|
|-------------------|-------------------|

         Q.        E +Q      Q
|-------^2---------2-(2)-----2-----|
|-------^3---------3-(3)-----3-----|
|-------^4---------4-(4)-----4-----|
|-------^4---------4-(4)-----4-----|
|-------^2---------2-(2)-----2-----|
|----------------------------------|
|
|  a  a  E  S S  E E  S  S E E S S
|-10h12p10--9-7--------------------|
|---------------10-8--7--5---------|
|--------------------------7-6-4---|
|--------------------------------7-|
|----------------------------------|
|----------------------------------|

   Q.       E   +Q      Q        Q.   E +Q    Q
|-^2--------2---(2)-----2-----|-------------------|
|-^3--------3---(3)-----3-----|-^4----4-(4)---4---|
|-^4--------4---(4)-----4-----|-^4----4-(4)---4---|
|-^4--------4---(4)-----4-----|-^6----6-(6)---6---|
|-^2--------2---(2)-----2-----|-^6----6-(6)---6---|
|-----------------------------|-^4----4-(4)---4---|
|
|  E  S S E S S  S  S E S S E    H.           Q
|-----------------------------|-------------------|
|-----------------------------|--------------[4]--|
|-----------------------------|--4----------------|
|--5--4-------------4h5-4h5h7-|-------------------|
|-------7-5-4-5--7------------|-------------------|
|-----------------------------|-------------------|

   Q.   E +Q   Q     Q.        E +Q        Q
|-----------------|-^2---------2-(2)-------2------|
|-^4----4-(4)--4--|-^3---------3-(3)-------3------|
|-^4----4-(4)--4--|-^4---------4-(4)-------4------|
|-^6----6-(6)--6--|-^4---------4-(4)-------4------|
|-^6----6-(6)--6--|-^2---------2-(2)-------2------|
|-^4----4-(4)--4--|-------------------------------|
|
|  H       H         E  S  S E E  S   S E  E  S S
|-[4]-------------|-------------------------------|
|---------[4]-----|-------------------------------|
|-----------------|-----------------------------9-|
|-----------------|---------------------9-11-12---|
|-----------------|----------7-9-10--12-----------|
|-----------------|--7--9-10----------------------|

   Q.         E +Q         Q
|-^6----------6-(6)--------6-------|
|-^7----------7-(7)--------7-------|
|-^8----------8-(8)--------8-------|
|-^8----------8-(8)--------8-------|
|-^6----------6-(6)--------6-------|
|----------------------------------|
|
|  E  S  S  E E  S   S  E  E  S  S
|-------------9-11--13-14-14p13p11-|
|-----9-11-12----------------------|
|-11-------------------------------|
|----------------------------------|
|----------------------------------|
|----------------------------------|

   >
   Q.   E +Q       Q      Q.           E  +Q   Q
|-^2----2-(2)------2---|--------------------------|
|-^3----3-(3)------3---|-^4------------4--(4)--4--|
|-^4----4-(4)------4---|-^4------------4--(4)--4--|
|-^4----4-(4)------4---|-^6------------6--(6)--6--|
|-^2----2-(2)------2---|-^6------------6--(6)--6--|
|----------------------|-^4------------4--(4)--4--|
|
|  >
|  Q.   E  S  S E +Q      E   E  S  S  E  +H
|-10-------9-----------|--------18----------------|
|-------7--------------|-----16-------------------|
|-------------6-7-(7)--|-----------15-16-(16)-----|
|----------------------|--------------------------|
|----------------------|--------------------------|
|----------------------|--------------------------|

   Q.       E +Q   Q     Q.   E +Q   Q
|---------------------|------------------||
|-^0--------0-(0)--0--|-^0----0-(0)--0---||
|-^0--------0-(0)--0--|-^0----0-(0)--0---||
|-^2--------2-(2)--2--|-^2----2-(2)--2---||
|-^2--------2-(2)--2--|-^2----2-(2)--2---||
|-^0--------0-(0)--0--|-^0----0-(0)--0---||
|
|  E  E S s E +H        +W
|---------------------|------------------||
|---------------------|------------------||
|---------------------|------------------||
|-------9-------------|------------------||
|-----7---------------|------------------||
|---------7-8-(8)-----|-(8)--------------||

                      |--3--|
  E  E   E E  Q.      S  S  S    E E  E E Q   Q
|------------14------12-------|-10-9------8---7---|
|-----------------------12----|---------8---------|
|---12--11-9---------------12-|-------9-----------|
|-----------------------------|-------------------|
|-----------------------------|-------------------|
|-----------------------------|-------------------|
|
| E  Q.       E  Q.              E Q.     E E E E
|-----------------------------|-------------------|
|-----------------------------|-------------------|
|----0-----------4------------|----3----------9p8-|
|-----------------------------|-------------7-----|
|-----------------------------|-------------------|
|-0-----------3---------------|--2--------7-------|

                          <
  E E   E E  E E  E  E    E  E  E E E E E E
|--------------7S12-15-|-15-14S10-9-----8s7---|
|---------8-11---------|------------8s7-------|
|---9--11--------------|----------------9s8---|
|----------------------|----------------------|
|----------------------|----------------------|
|----------------------|----------------------|
|
|                         <
| E Q.       E Q.         E  Q.     E E Q
|----------------------|----------------------|
|----------------------|----------------------|
|---0----------4-------|-----3----------5-----|
|----------------------|--------------7-------|
|----------------------|----------------------|
|-0----------3---------|--2---------7---------|

    E  E  E  E  E  E  Q        E E  E  E  E  E  Q     E  E  E  E  E  E  Q
|------5--5--5--5----------|--------------------5---|----7--7--7--7----------|
|------6--6--6--6--6--6----|-----5--5--5--5--5--5---|----8--8--8--8--8--8----|
|------9--7--5-----7--7----|-----5--5--5--5--5--5---|---11--9--7-----9--9----|
|---------------9--7--6----|-----9--7--6--5---------|------------11--9--8----|
|--------------------------|-0-0-------------9--8---|------------------------|
|-7-7----------------------|------------------------|------------------------|
| a H           H            a H          H
|
|   E  E  E  E  E  E  E  E     E E  E  E  E  E  E E   E  E  E  E  E  E  E E
|-----10-12-13-12p10-------|----------12-------10p8-|---12-14-15-14p12-10p9--|
|--------------------13p12-|-------12----12p10------|------------------------|
|--------------------------|-----9------------------|------------------------|
|--------------------------|------------------------|------------------------|
|--------------------------|------------------------|------------------------|
|--------------------------|------------------------|------------------------|

  Q.       E +Q      Q
|----------------------------|
|----------------------------|
|----------------------------|
|----------------------------|
|----------------------------|
|-7--------7-(7)-----7-------|
|
| E  S S E E  S  S E S S S S
|-8--------7---------6-------|
|----7--------6--------5-----|
|------8---------7-------6---|
|--------7---------6-------5-|
|----------------------------|
|----------------------------|

  Q.       E +Q      Q         Q.       E +Q      Q
|----------------------------|-----------------------------|
|----------------------------|-----------------------------|
|----------------------------|-----------------------------|
|----------------------------|-----------------------------|
|----------------------------|-----------------------------|
|-7--------7-(7)-----7-------|-7--------7-(7)-----7--------|
|
| E  S S E E  S  S E S S S S   E  S S E E  S  S E S S S S
|-5--------4---------3-------|-2--------1------------------|
|----4--------3--------2-----|----1--------0------5--------|
|------5---------4-------3---|------2---------1-----2------|
|--------4---------3-------2-|--------1---------0-----4----|
|----------------------------|--------------------------3--|
|----------------------------|-----------------------------|

  Q    Q  H       E  E  E E  E E  E E   E E E E Q   Q     E E  E  E E E  E  E
|---------------|---------------------|-----------------|---------------------|
|---------------|---------------------|-----------------|---------------------|
|---------------|-----------11-9------|-7-6-----5p==4---|----------------9-11-|
|---------------|-----------------9-5-|-----2-5---------|-----------8-9-------|
|---------------|---10--9-7-----------|-----------------|---7--9-10-----------|
|-7-------------|---------------------|-----------------|---------------------|
|
| Q  a Q  Q  Q    E  Q.      E Q.       H       E E E E   E Q.      E Q.
|---------------|---------------------|-----------------|---------------------|
|---------------|---------------------|-----------------|---------------------|
|---------------|----0---------4------|-3-----------9p8-|---0---------4-------|
|---------------|---------------------|-----------7-----|---------------------|
|-2-------------|---------------------|-----------------|---------------------|
|----6p5--3--2--|-0----------3--------|-2-------7-------|-0---------3---------|

               |-3-|
   E E E E E E E E E   E  E   E  E  E  E   E  E
|--------------------|---10--12-13-12p10--------|
|-10-8-7-5-----------|--------------------13p12-|
|----------8S7-6-5-4-|--------------------------|
|--------------------|--------------------------|
|--------------------|--------------------------|
|--------------------|--------------------------|
|
|  H       H           E  Q.        E  Q.
|--------------------|--------------------------|
|--------------------|----6------------6--------|
|-^3-------2---------|----7------------7--------|
|-^2-----------------|----7------------6--------|
|----------2---------|--------------------------|
|-^2-----------------|-7------------0-----------|

                             <
   E  E  E  E  E  E E  E   E E   E  E  E E   E  E
|-------12---------------|---8--10-11-10p8--------|
|-12p10----13-12s10------|------------------12p10-|
|-------------------9----|------------------------|
|---------------------10-|------------------------|
|------------------------|------------------------|
|------------------------|------------------------|
|
|                          <
|  Q     Q     Q    Q      E Q.        E Q.
|------------------------|------------------------|
|------------------------|---4-----------4--------|
|--5---------------------|---5-----------5--------|
|------------------------|---5-----------4--------|
|--7h====8s====9s===8----|-------------5----------|
|--5---------------------|-5----------------------|
   H           H

   E  S  S  E E S  S E  E S S
|-15-14p12S10-8-7-------------|
|-----------------10-8--7-----|
|-------------------------9p7S|
|-----------------------------|
|-----------------------------|
|-----------------------------|
|
|  E  E     E E E    E  E E
|-----------------------------|
|-----------------------------|
|-----7-------7---------------|
|-----9-------9------9----9---|
|-10--------9---7-------------|
|----------------------10-----|

  E  E  S  S  E  +S  S  S S S S S S   S S S S S S E E E E E
|---------10-10-(10)------7h8-------|-------------------------|
|---10-10------------8h10---------5h|=6-----------------------|
|-9---------------------------5h7---|-----------5h7-8---9-----|
|-----------------------------------|-----5h7h8-------8---8---|
|-----------------------------------|---8---------------------|
|-----------------------------------|-------------------------|
|
| E  E  E     E   E     E   E   E     E   E   E   E E E E E
|-----------------------------------|-------------------------|
|-----------------------------------|-------------------------|
|-----------------------------------|-------------------------|
|----7--------7---------5-------5---|-----3-------3---1---2---|
|-----------------------------------|-------------------------|
|-9-----8---------7---------6-------|-5-------4-----3---2-----|

   <
   E E S  S S S S S S S S S S S   E S S E E S S E S S S S
|------2--------3-------4-------|-5-------6-------7-------|
|---------2-------3-------4-----|---5-------6-------6-----|
|-10--------3-------4-------5---|-----6-------7-------7---|
|----8--------2-------3-------4-|-------5-------6-------6-|
|-------------------------------|-------------------------|
|-------------------------------|-------------------------|
|
|  <
|  E E H.                         W
|-------------------------------|-------------------------|
|-------------------------------|-------------------------|
|-------------------------------|-------------------------|
|----1--------------------------|-------------------------|
|-------------------------------|-------------------------|
|--1---0------------------------|-0-----------------------|

  Allegro Q=120
      D.S. al Coda &
                      6/8
  H.      Q            E  S  S  S  S  S  S S  S S  S
|------------------||----------------12--------------|
|------------------||o---10-13-12-10----12-9---------|
|------------------||------------------------10-9----|
|------------------||--0--------------------------12-|
|------------------||o-0-----------------------------|
|-0----------------||--0-----------------------------|
|
| H.      S S S S      E  S  S  S  S  S  S S  S S  S
|------------------||--------------------------------|
|------------------||o----------5--6--9--6-----------|
|------------------||--------5-------------7---------|
|------------------||--0--7-------------------9-6----|
|------------------||o-0---------------------------8-|
|-0-------1h2h3h4--||--0-----------------------------|

  E S  S  S S  S  S S S S  S
|-------------10-------------|
|---8-11-10-8----10-7--------|
|---------------------8-7----|
|-0-----------------------10-|
|-0--------------------------|
|-0--------------------------|
|
| E S  S  S S  S  S S S S  S
|----------------------------|
|---------3-4--7--4----------|
|------3------------5--------|
|-0-5-----------------7-4----|
|-0------------------------6-|
|-0--------------------------|

                          <            >
  E S S S S S S S S S S   S S  S S S S S S S S S S
|-----------8-----------|------------7-6-----------||
|---6-9-8-6---8-5-------|----------7-----6---------||
|-----------------6-5---|--------8---------7-------||
|-0-------------------8-|-7h9-10-------------9p8p6-||
|-0---------------------|--------------------------||
|-0---------------------|--------------------------||
|
|                         <            >
| E S S S S S S S S S S   S S  S S S S S S S S S S
|-----------------------|--------------------------||
|-------1-2-5-2---------|------------4-3-----------||
|-----1---------3-------|----------5-----4---------||
|-0-3-------------5-2---|------4-7---------6-3-----||
|-0-------------------4-|-3-6------------------5-2-||
|-0---------------------|--------------------------||

  1.                          2.
  <           >
  S S S S S S S S S S S S     E E E S S S  S  S S   E  E E  S  S  S  S  S  S
|-----------5-4------------||---7---8-------------|----9---10-----------------|
|---------5-----4---------o||---7-----8-----------|----9------10--------------|
|-------6---------5--------||---8-------9---------|---10---------11-----------|
|-5h7-8-------------7p6p4--||---9---------11p10-8-|---11------------13p12-10--|
|-------------------------o||---9-----------------|---11----------------------|
|--------------------------||---7-----------------|----9----------------------|
|
| <           >
| S S S S S S S S S S S S     E E E S S S  S  S S   E  E E  S  S  S  S  S  S
|--------------------------||---0---0-------------|----2----2-----------------|
|-----------2-1-----------o||---1-----2-----------|----3-------4--------------|
|---------3-----2----------||---2-------3--0------|----4----------5--2--------|
|-----2-5---------4-1------||---2-------------2---|----4----------------4-----|
|-1-4-----------------3-0-o||---0---------------4-|----2-------------------6--|
|--------------------------||---------------------|---------------------------|

                                     >                       <
  E  E E  S  S S  S S  S    S  S  S  S  S  S  S  S S S S S   Q.   E E E
|---11---12--------------|-13------------------------------|------3-----*|
|---11------12-9---------|----13-10------------------------|------3-----*|
|---12-----------10-8----|----------11-10------------------|------2-----*|
|---13----------------12-|----------------13-12-10-7-------|------2-----*|
|---13-------------------|---------------------------9-8-6-|-5/---------*|
|---11-------------------|---------------------------------|------------*|
|
|                                    >                       <
| E  E E  S  S S  S S  S    S  S  S  S  S  S  S  S S S S S   Q.   E E E
|----4----4--------------|--1------------------------------|------0-----*|
|----5-------6----0------|-----1---------------------------|------0-----*|
|----6---------7----1----|--------2------------------------|------0-----*|
|----6-----------------3-|-----------4p=3--1p=0----------1-|-0/---0-----*|
|----4-------------------|-----------------------3p0-------|------0-----*|
|------------------------|---------------------------2p1---|------0-----*|

Duration Legend
---------------
W - whole   H - half  Q - quarter  E - 8th  S - 16th  a - acciaccatura
+ - note tied to previous   . - note dotted   .. - note double dotted
Uncapitalized letters represent notes that are staccato (1/2 duration)
Irregular groupings are notated above the duration line Duration letters
will always appear directly above the note/fret number they represent the
duration for.  Duration letters with no fret number below them represent
rests.  Multi-bar rests are notated in the form Wxn, where n is the number
of bars to rest for.  Low melody durations appear below the staff

Tablature Legend
----------------
 h   - hammer-on
 p   - pull-off
 /\  - slide into or out of (from/to "nowhere")
[n]  - artificial harmonic
n(n) - tapped harmonic

Misc Legend
-----------
 |  - bar
||  - double bar
||o - repeat start
o|| - repeat end
*|  - double bar (ending)
 :  - bar (freetime)
 $  - Segno
 &  - Coda
Добавлено: 26.07.2012
Другие материалы по этой песне:
  • Аккорды и текст

Страница создана 26.07.2012
http://primanota.ru/astor-piazzolla/tango-suite-1-deciso-chords.htm
Привет, Гость.
Предлагаем пройти революционный курс по гитаре.
Подарок от PrimaNota.Ru, забирай!