PrimaNota.ru - самый крупный в мире бесплатный архив песенных текстов, аккордов, табулатур и нот


Пьяццолла Астор - Libertango - таба, видео

Регистрация Запомнить меня
Войти через:  Facebook Google Twitter Vk Yandex Mail.ru

Пьяццолла Астор - Libertango - таба, видео

Печатать
Просмотров: 1633
Авторы музыки: Astor Piazzolla

h  hammer on    | p  pull off       | b  bend string up
# r  release bend | /  slide up       | \  slide down
# v  vibrato      | t  right hand tap | x  play 'note' with heavy damping
# S  slap         | P  pop            | <> harmonic
#
#Title         : Libertango
#Composer      : Astor Piazzola
#Export date   : Samedi 24 février 2007 11:34:18
#File          : tango.mus
#Staff         : Guitare 
#Tempo         : 120
#Time Division : 4/4
#Neck          : Guitar 
#------------------------------------------------------------------------------#


E |-0---0---0--|-0---0---0--|-2---2-2--2--|-2---2---2--|-1---1---1--|
B |-1---1---1--|-1---1---1--|-4---4-4--4--|-4---4---4--|-3---3---3--|
G |-2---2---2--|-2---2---2--|-4---4-4--4--|-4---4---4--|-4---4---4--|
D |-2---2---2--|-2---2---2--|-4---4-4--4--|-4---4---4--|-3---3---3--|
A |-0---0---0--|-0---0---0--|-0---0-0--0--|-0---0---0--|-0---0---0--|
E |------------|------------|-------------|------------|------------|

|-1---1---1--|-0---0---0--|------------|-5---5---5--|-5---5---5--|-5---5---5--|
|-3---3---3--|-1---1---1--|-5---5---5--|-5---5---5--|-5---5---5--|-4---4---4--|
|-4---4---4--|-2---2---2--|-5---5---5--|-5---5---5--|-5---5---5--|-5---5---5--|
|-3---3---3--|-2---2---2--|-7---7---7--|-5---5---5--|-5---5---5--|-4---4---4--|
|-0---0---0--|-0---0---0--|-7---7---7--|------------|------------|------------|
|------------|------------|-5---5---5--|------------|------------|------------|

|-5---5---5--|-4---4---4--|-4---4---4--|-4---4---4--|-4---4---4--|
|-4---4---4--|-3---3---3--|-3---3---3--|-3---3---3--|-3---3---3--|
|-5---5---5--|-4---4---4--|-4---4---4--|-4---4---4--|-4---4---4--|
|-4---4---4--|-3---3---3--|-3---3---3--|-2---2---2--|-2---2---2--|
|------------|------------|------------|-2---2---2--|-2---2---2--|
|------------|------------|------------|-0---0---0--|-0---0---0--|

|-------------8-5-|---------8-5-----|-------------7---|---------7-------|
|---5-6-5-6-5-----|---5-6-5-----5-6-|---4-5-4-5-4---7-|---4-5-4---7-4-5-|
|---5-------------|---5-------------|---4-------------|---4-------------|
|-----------------|-----------------|-----------------|-----------------|
|-0-----0-----0---|-0-----0-----0---|-0-----0-----0---|-0-----0-----0---|
|-----------------|-----------------|-----------------|-----------------|

|-------------7---|---------7-------|-------------5---|---------5-------|
|---3-5-3-5-3---6-|---3-5-3---6-3-5-|---1-3-1-3-1---5-|---1-3-----5-1-3-|
|---4-------------|---4-------------|---2-------------|---2---5---------|
|-----------------|-----------------|-----------------|-----------------|
|-0-----0-----0---|-0-----0-----0---|-0-----0-----0---|-0-----0-----0---|
|-----------------|-----------------|-----------------|-----------------|

|-------------5---|---------5-------|-------------5---|---------5-------|
|-----3---3-----5-|-----3-----5---3-|-----3---3-----4-|-----3-----4---3-|
|---5---5---5-----|---5---5-----5---|---5---5---5-----|---5---5-----5---|
|-----------------|-----------------|-----------------|-----------------|
|-----------------|-----------------|-----------------|-----------------|
|-3-----3-----3---|-3-----3-----3---|-2-----2-----2---|-2-----2-----2---|

|-------------4---|---------4-------|-------------4---|---------4-------|
|---0-1-0-1-0---3-|---0-1-0---3-0-1-|---0-1-0-1-0---3-|---0-1-0---3-0-1-|
|-----------------|-----------------|-----------------|-----------------|
|-----------------|-----------------|-----------------|-----------------|
|-----------------|-----------------|-----------------|-----------------|
|-1-----1-----1---|-1-----1-----1---|-0-----0-----0---|-0-----0-----0---|

|-0---0---0--|-0---0---0--|-2---2-2--2--|-2---2---2--|-1---1---1--|-1---1---1--|
|-1---1---1--|-1---1---1--|-4---4-4--4--|-4---4---4--|-3---3---3--|-3---3---3--|
|-2---2---2--|-2---2---2--|-4---4-4--4--|-4---4---4--|-4---4---4--|-4---4---4--|
|-2---2---2--|-2---2---2--|-4---4-4--4--|-4---4---4--|-3---3---3--|-3---3---3--|
|-0---0---0--|-0---0---0--|-0---0-0--0--|-0---0---0--|-0---0---0--|-0---0---0--|
|------------|------------|-------------|------------|------------|------------|

|-0---0---0--|------------|-5---5---5--|-5---5---5--|-5---5---5--|-5---5---5--|
|-1---1---1--|-5---5---5--|-5---5---5--|-5---5---5--|-4---4---4--|-4---4---4--|
|-2---2---2--|-5---5---5--|-5---5---5--|-5---5---5--|-5---5---5--|-5---5---5--|
|-2---2---2--|-7---7---7--|-5---5---5--|-5---5---5--|-4---4---4--|-4---4---4--|
|-0---0---0--|-7---7---7--|------------|------------|------------|------------|
|------------|-5---5---5--|------------|------------|------------|------------|

|-4---4---4--|-4---4---4--|-4---4---4--|-4---4---4--|-----------------|
|-3---3---3--|-3---3---3--|-3---3---3--|-3---3---3--|---------3-------|
|-4---4---4--|-4---4---4--|-4---4---4--|-4---4---4--|---0-2-0---3-0-2-|
|-3---3---3--|-3---3---3--|-2---2---2--|-2---2---2--|-----------------|
|------------|------------|-2---2---2--|-2---2---2--|-1-----1-----1---|
|------------|------------|-0---0---0--|-0---0---0--|-----------------|

|-----------------|-------------1---|---------1-------|-----------------|
|---------3-------|---------------3-|-----------3-----|-----------------|
|---0-2-0---3-2-0-|---2-3-2-3-2-----|---2-3-2-----2-3-|---------5-------|
|-----------------|-0-----0-----0---|-0-----0-----0---|---3-5-3---6-3-5-|
|-1-----1-----1---|-----------------|-----------------|-----------------|
|-----------------|-----------------|-----------------|-4-----4-----4---|

|-----------------|-0-----0-----0---|-0-----0-----0---|-------------8-5-|
|-----------------|-----1-----1-----|-----0-----0-----|---5-6-5-6-5-----|
|---------6-------|---0-----0-----0-|---1-----1-----1-|---5-------------|
|---3-5-3---6-5-3-|-----------------|-----------------|-----------------|
|-----------------|-3-----3-----3---|-2-----2-----2---|-0-----0-----0---|
|-3-----3-----3---|-----------------|-----------------|-----------------|

|---------8-5-----|-------------7---|---------7-------|-------------7---|
|---5-6-5-----5-6-|---4-5-4-5-4---7-|---4-5-4---7-4-5-|---3-5-3-5-3---6-|
|---5-------------|---4-------------|---4-------------|---4-------------|
|-----------------|-----------------|-----------------|-----------------|
|-0-----0-----0---|-0-----0-----0---|-0-----0-----0---|-0-----0-----0---|
|-----------------|-----------------|-----------------|-----------------|

|---------7-------|-------------5---|---------5-------|----------------|
|---3-5-3---6-3-5-|---1-3-1-3-1---5-|---1-3-1---5-1-3-|------------1---|
|---4-------------|---2-------------|---2-------------|--------------2-|
|-----------------|-----------------|-----------------|--2-3-2-3-2-----|
|-0-----0-----0---|-0-----0-----0---|-0-----0-----0---|----------------|
|-----------------|-----------------|-----------------|----------------|

|----------------|----------------|----------------|----------------|
|--------1-------|----------------|----------------|------------0---|
|----------2-----|------------4---|--------4-------|----------------|
|--2-3-2-----2-3-|--1-2-1-2-1---4-|--1-2-1---4-----|--0-2-0-2-0---3-|
|----------------|----------------|------------6-7-|----------------|
|----------------|----------------|----------------|----------------|

|----------------|----------------|----------------|----------|
|--------0-------|----------------|----------------|----------|
|----------------|------------2---|--------2-------|-2--------|
|--0-2-0---3-0-2-|----0---0-----2-|----0-----2---0-|----------|
|----------------|--3---3---3-----|--3---3-----3---|-0--------|
|----------------|----------------|----------------|----------|

#End of file.
Добавлено: 28.05.2012
Другие материалы по этой песне:

Страница создана 26.02.2012
http://primanota.ru/astor-piazzolla/libertango-chords.htm
Привет, Гость.
Предлагаем пройти революционный курс по гитаре.
Подарок от PrimaNota.Ru, забирай!