PrimaNota.ru - самый крупный в мире бесплатный архив песенных текстов, аккордов, табулатур и нот


Пьяццолла Астор - Ausencias - таба, видео

Регистрация Запомнить меня
Войти через:  Facebook Google Twitter Vk Yandex Mail.ru

Пьяццолла Астор - Ausencias - таба, видео

Печатать
Просмотров: 389
Авторы музыки: Astor Piazzolla

This tablature covers only the first part of three.


E|---------------------|-------------7---8-------|-------------8---7-------|
B|---------------------|-10----------------------|---------------------10--|
G|------8--9--10-11-12-|---------------------9---|-8-----------------------|
D|---------------------|---------7---------------|---------7---------------|
A|---------------------|-----7-----------7-------|-----9-----------7-------|
E|---------------------|-8-----------------------|-7-----------------------|

E|-------------5---6-------|-------------6--5--6--5-----|
B|-8-----------------------|-------------------------8--|
G|---------------------7---|-6--------------------------|
D|---------5---------------|---------5------------------|
A|-----5-----------5-------|-----7----------5-----------|
E|-6-----------------------|-5--------------------------|

E|-------------3---4-------|-------------4---3-------|-------------------------|
B|-6-----------------------|---------------------6---|-5-----------------------|
G|---------------------5---|-4-----------------------|---------5---------------|
D|---------3---------------|---------3---------------|-----5-------5---2-------|
A|-----3-----------3-------|-----5-----------3-------|-3-------------------3---|
E|-4-----------------------|-3-----------------------|-------------------------|

E|-3---8---12--10----------|-12--13--12-10----------|-------------13--12--10--|
B|-------------------------|---------------13-12-10-|-9-----------------------|
G|-------------------------|------------------------|-------------------------|
D|---------------------9---|-12--9------------------|---------10--------------|
A|-0---7-----------9-------|---------10-------------|-----11------------------|
E|---------8---7-----------|------------------------|-12----------------------|

E|-8---------------------------|-5---7---8---7---10--8---|-7----2--3--2--3--2--|
B|-----------------8--7--6--5--|-------------------------|---------------------|
G|-------------5---------------|-------------------------|---------------------|
D|---------7-------------------|-------------------------|---------------------|
A|-----7-----------------------|-3---7---10--------------|---------------------|
E|-5---------------------------|-----------------8-------|-3-------------------|

E|-1-----------2---3---2---|-7------------------------------|
B|-------------------------|--------------------------------|
G|---------4---------------|-------------8--9----10-11---12-|
D|-----3-------------------|---------9---------9------------|
A|-4-----------------------|-----9--------------------9-----|
E|-------------------------|-7------------------------------|

E|-------------7---8-------|-------------8--7--10-8--7-----|
B|-10----------------------|----------------------------10-|
G|---------------------9---|-8-----------------------------|
D|---------7---------------|---------7---------------------|
A|-----7-----------7-------|-----9-------------------------|
E|-8-----------------------|-7-----------------------------|

E|-------------5--6-----------|-------------6--5--6--5-----|
B|-8----------------8-7-6-5---|-------------------------8--|
G|--------------------------7-|-6--------------------------|
D|---------5------------------|---------5------------------|
A|-----5----------------------|-----7----------5-----------|
E|-6--------------------------|-5--------------------------|

E|-------------3------4------|-7---11--15--14--12--|-11----------------------|
B|-6-------------------------|---------------------|-------------------------|
G|---------------------------|---------------------|-------------8-----------|
D|---------3-----------------|---------------------|---------10------8-------|
A|-----3-----------3---------|---------------------|-----10--------------10--|
E|-4-------------------------|---------------------|-8-----------------------|

E|-11----|-11----------10--11--13--|-14------------------11--|
B|-------|-------------------------|-------------10--9-------|
G|-------|-------------------------|-------------------------|
D|-------|---------10--------------|---------13--------------|
A|-------|-----10------------------|-----13------------------|
E|-11----|-8-----------------------|-11----------------------|

E|-9-----------8---9---11--|-12------------------9---|-8-----------6---8---9---|
B|-------------------------|-------------7---6-------|-------------------------|
G|-------------------------|-------------------------|-------------------------|
D|---------8---------------|---------11--------------|---------6---------------|
A|-----8-------------------|-----11------------------|-----6-------------------|
E|-6-----------------------|-9-----------------------|-4-----------------------|

E|-11------------------8---|-6-----------8---9-------|---------3---0---|
B|-------------6---5-------|---------------------6---|-5---6-----------|
G|-------------------------|-------------------------|-----------------|
D|---------10--------------|---------5-------8-------|-----------------|
A|-----10------------------|-----5-------------------|-----------------|
E|-8-----------------------|-3-----------------------|-8-------3-------|


E|-1---------------------------|-------------------------|------------|-------||
B|-----------1-------1---------|---------1-------1-------|------------|-------||
G|---------------1-------------|-------------1-----------|------------|-------||
D|---------------3-------------|-------------3-----------|------------|-------||
A|-----3-----------------------|-----3-------------------|------------|-------||
E|-1-----------------------4---|-1-------------------4---|-1----------|-------||
Добавлено: 26.07.2012
Другие материалы по этой песне:
  • Аккорды и текст

Страница создана 26.07.2012
http://primanota.ru/astor-piazzolla/ausencias-chords.htm
Привет, Гость.
Предлагаем пройти революционный курс по гитаре.
Подарок от PrimaNota.Ru, забирай!