PrimaNota.ru - самый крупный в мире бесплатный архив песенных текстов, аккордов, табулатур и нот


Asteroidica - God s own creation - таба

Регистрация Запомнить меня
Войти через:  Facebook Google Twitter Vk Yandex Mail.ru

Asteroidica - God s own creation - таба

Печатать
Просмотров: 74


#-----------------------------------------------------------------------------#
#-- File created with Instab - http://www.pconline.com/~smcarey/instab.html --#
#-----------------------------------------------------------------------------#

Author/Artist: Asteroidica
Title: Godґs Own Creation
Album: Ghost Of Abyss
Transcribed by: Jimmy Karlsson
Email: jimmykarlsson430@hotmail.com

-|-----------------------------------------------------------|-|---------|-|--
-|-----------------------------------------------------------|-|---------|-|--
-|-7-v------------5-v------------7----------3--5---7---------|-|---------|-|--
-|-7-v--7-5--3----5-v---5-3--5---7--7-5-3---3--5---7---------|-|---2x----|-|--
-|-5-v------------3-v------------5----------1--3---5---------|-|---------|-|--
-|-----------------------------------------------------------|-|---------|-|--
 G:1 plays the part above...G:2 Play below                                    

-|---------------------------------------------------------------|-|------|-|-
-|---------------------------------------------------------------|-|------|-|-
-|------14-15--14h15p14--12vv-12-17-15-14h15p14-----14-15-14-----|-|------|-|-
-|-12vv----------------------------------------12-12--------8-10-|-|--2x--|-|-
-|---------------------------------------------------------------|-|------|-|-
-|---------------------------------------------------------------|-|------|-|-
 G:1                                                                          

-|----------------------------------------------------------------------------
-|----------------------------------------------------------------------------
-|----------------------------------------------------------------------------
-|-777777777777777--7-7-5-5-3--555555555555555-5-5-3-3-5-77777777777777-7-7-5-
-|-555555555555555-------------333333333333333-----------55555555555555-------
-|----------------------------------------------------------------------------
                                                                              

--------------------------------------------------------------|--|-------|--|-
--------------------------------------------------------------|--|-------|--|-
--------------------------------------------------------------|--|-------|--|-
-5-3--333333333333333--555555555555555------------------------|--|--2x---|--|-
------111111111111111--333333333333333------------------------|--|-------|--|-
--------------------------------------------------------------|--|-------|--|-
 G:2                           Softly Muted                                   

-|----------------------------------------------------------------------------
-|----------------------------------------------------------------------------
-|----------------------------------------------------------------------------
-|-77777777777777777777777777----5555555555555555555555--77777777777777777777-
-|-55555555555555555555555555----3333333333333333333333--55555555555555555555-
-|----------------------------------------------------------------------------
                                                                              

--------------------------------------------------------------|--|-------|--|-
--------------------------------------------------------------|--|-------|--|-
--------------------------------------------------------------|--|-------|--|-
---33333333333333333333----55555555555555555555555------------|--|--2x---|--|-
---11111111111111111111----33333333333333333333333------------|--|-------|--|-
--------------------------------------------------------------|--|-------|--|-
  G:1...And...G:2                                                             

-|-------------------------------------------------|-|-|-|-|-|-|-|-|-|-|-|-|--
-|-------------------------------------------------|-|-|-|-|-|-|-|-|-|-|-|-|--
-|-------------------------------------------------|-|-|-|-|-|-|-|-|-|-|-|-|--
-|-7--0--7--0--5--5-5-5-5-5-------------4x---------|-|-|-|-|-|-|-|-|-|-|-|-|--
-|-5--0--5--0--3--3-3-3-3-3------------------------|-|-|-|-|-|-|-|-|-|-|-|-|--
-|-------------------------------------------------|-|-|-|-|-|-|-|-|-|-|-|-|--
  G:1...And...G:2                   Heavy Part                                

-|-----------------------------------------------------------------------2x-|-
-|--------------------------------------------------------------------------|-
-|--------------------------------------------------------------------------|-
-|2-2-2-2-2-2-2-2-2-2-2-2-2--3-3x-2-2-2-2-2-2---3-3-3--2-2-2----------------|-
-|2-2-2-2-2-2-2-2-2-2-2-2-2--3-3x-2-2-2-2-2-2----------------3-3-3-2-2-2----|-
-|0-0-0-0-0-0-0-0-0-0-0-0-0--1-1x-0-0-0-0-0-0---------------------------3230|-
  G:1                                                                         

-|----------------------------------------------------------|-|-|-|-|-|-|-|---
-|----------------------------------------------------------|-|-|-|-|-|-|-|---
-|----------------------------------------------------------|-|-|-|-|-|-|-|---
-|-2-------22------------2----------22---------2------------|-|-|-|-|-|-|-|---
-|-2-------22------------2----------22---------2------------|-|-|-|-|-|-|-|---
-|-0-------00------------0----------00---------0------------|-|-|-|-|-|-|-|---
  G:2                                                                         

-|----------------------------------------------------------|-|-|-|-|-|-|-|-|-
-|----------------------------------------------------------|-|-|-|-|-|-|-|-|-
-|----------------------------------------------------------|-|-|-|-|-|-|-|-|-
-|-2---------2----3-2----2-----------2--3-2----2------------|-|-|-|-|-|-|-|-|-
-|-2--3-2----2--------3--2--3--2-----2------3--2------------|-|-|-|-|-|-|-|-|-
-|-0------3--0-----------0-------3---0---------0------------|-|-|-|-|-|-|-|-|-
  Back to the heavy part(G:1..And..G:2 plays the same)                        

-|------------------------------------------------------------------------2x|-
-|--------------------------------------------------------------------------|-
-|--------------------------------------------------------------------------|-
-|2-2-2-2-2-2-2-2-2-2-2-2-2-2--3-3-x-2-2-2-2-2-2-3-3-3-2-2-2----------------|-
-|2-2-2-2-2-2-2-2-2-2-2-2-2-2--3-3-x-2-2-2-2-2-2------------3-3-3-2-2-2-----|-
-|0-0-0-0-0-0-0-0-0-0-0-0-0-0--1-1-x-0-0-0-0-0-0-----------------------3230-|-
  G:1                                                                         

-|----------------------------------------------------------------------------
-|----------------------------------------------------------------------------
-|----------------------------------------------------------------------------
-|----------------------------------------------------------------------------
-|-----7-----8------5------7-----7-------7------8------5-----5------7-----8---
-|-0-0---0-0----0-0----0-0---0-0-----0-0----0-0----0-0---0-0----0-0---0-0-----
   x x   x x    x x    x x   x x     x x    x x    x x   x x    x x   x x     

-----------------------------------------------------------------|-|------|-|-
-----------------------------------------------------------------|-|------|-|-
-----------------------------------------------------------------|-|------|-|-
-----------------------------------------------------------------|-|--2x--|-|-
-------5------7------7-------7------8------10-10-10--------------|-|------|-|-
---0-0----0-0----0-0-----0-0----0-0----0-0--0--0--0--------------|-|------|-|-
  G:2                                            Play this a bunch of times   

-|--------------------------------------------|-------------|---------------|-
-|--------------------------------------------|-------------|---------------|-
-|-9---10--9----7----9vv--9---10---9---7----9-|-------------|---------------|-
-|-9---10--9----7----9vv--9---10---9---7----9-|-------------|---------------|-
-|-7v--8---7----5----7vv--7---8----7---5----7-|-------------|---------------|-
-|--------------------------------------------|-------------|---------------|-
   G:1...And...G:2        Play this quite fast                                

-|----------------------------------------------------------|---------------|-
-|----------------------------------------------------------|---------------|-
-|----------------------------------------------------------|---------------|-
-|----------------------------------------------------------|------2x-------|-
-|--------7-----------8----------5-------7------8------|---------------|-
-|-000000------000000------000000-------00------00----------|---------------|-
 Both guitars         2x                                4x                    

-|--------------------------------------|-----------------------------------|-
-|--------------------------------------|-----------------------------------|-
-|-57-7-7--7-7/5-5-5-5p0-2-2-2-2-2-2-2-|-2-2-2-2-2-2-2-3-3-3---------------|-
-|-57-7-7--7-7/5-5-5-5p0-2-2-2-2-2-2-2-|-2-2-2-2-2-2-2-3-3-3---------------|-
-|-35-5-5--5-5/3-3-3-3p0-0-0-0-0-0-0-0-|-0-0-0-0-0-0-0-1-1-1---------------|-
-|--------------------------------------|-----------------------------------|-
  G:1            (Verse)   Walking down a foggy beach......                   

-|--------------------------------------------------------------------------|-
-|--------------------------------------------------------------------------|-
-|-7-7-7-7-7-7-7-7-7-7-7-7-7-7-7--5-5-5-5-5-5-5--3-5-3-5--7-7-7-7-7-7-7-----|-
-|-7-7-7-7-7-7-7-7-7-7-7-7-7-7-7--5-5-5-5-5-5-5--3-5-3-5--7-7-7-7-7-7-7-----|-
-|-5-5-5-5-5-5-5-5-5-5-5-5-5-5-5--3-3-3-3-3-3-3--1-3-1-3--5-5-5-5-5-5-5-----|-
-|--------------------------------------------------------------------------|-
  G:2                                                                         

-|--------------------------------------------------------------------------|-
-|--------------------------------------------------------------------------|-
-|-7-7-7-7-7-7-7-7----------5h7p5---5-5-5-5-5-5-5--3-5-3-5------------------|-
-|-7-7-7-7-7-7-7-7------5-7---------5-5-5-5-5-5-5--3-5-3-5--7-7-7-7-7--7----|-
-|-5-5-5-5-5-5-5-5--5-7-------------3-3-3-3-3-3-3--1-3-1-3--5-5-5-5-5--5----|-
-|--------------------------------------------------------------------------|-
  G:1                      In the same time.....                              

-|--------------------------------------------------------------------------|-
-|--------------------------------------------------------------------------|-
-|----7--------5-------3------5-----7----5------7----3---7------------------|-
-|----7--------5-------3------5-----7----5------7----3---7------------------|-
-|----5--------3-------1------3-----5----3------5----1---5------------------|-
-|--------------------------------------------------------------------------|-
  G:2                                                                         

-|--------------------------------------------------------------------------|-
-|--------------------------------------------------------------------------|-
-|----7vv--9-10---5----9-10--3----9-10-5vv12--7vv-9-10-5--9-10--7--9-10-3-5|-
-|--------------------------------------------------------------------------|-
-|--------------------------------------------------------------------------|-
-|--------------------------------------------------------------------------|-
  G:1           (Verse again)                                                 

-|--------------------------------------------------------------------------|-
-|--------------------------------------------------------------------------|-
-|-7-7-7-7-7-7-7-7-7-7-7-7-7-7-7-7---5-5-5-5-5-5-5-5-5-5--3-5-3-5-7-7-7-7-7-|-
-|-7-7-7-7-7-7-7-7-7-7-7-7-7-7-7-7---5-5-5-5-5-5-5-5-5-5--3-5-3-5-7-7-7-7-7-|-
-|-5-5-5-5-5-5-5-5-5-5-5-5-5-5-5-5---3-3-3-3-3-3-3-3-3-3--1-3-1-3-5-5-5-5-5-|-
-|--------------------------------------------------------------------------|-
  G:2                                                                         

-|--------------------------------------------------------------------------|-
-|--------------------------------------------------------------------------|-
-|--7-7-7-7-7-7----------5h7p5---5-5-5-5-5-5-5-5--3-5-3-5--7-7-7-7-7-7-7----|-
-|--7-7-7-7-7-7------5-7---------5-5-5-5-5-5-5-5--3-5-3-5--7-7-7-7-7-7-7----|-
-|--5-5-5-5-5-5--5-7-------------3-3-3-3-3-3-3-3--1-3-1-3--5-5-5-5-5-5-5----|-
-|--------------------------------------------------------------------------|-
  G:1                             With the cross held high...                 

-|--------------------------------------------------------------------------|-
-|--------------------------------------------------------------------------|-
-|--7------5-------3------5------7------5------7------3----5----------------|-
-|--7------5-------3------5------7------5------7------3----5----------------|-
-|--5------3-------1------3------5------3------5------1----3----------------|-
-|--------------------------------------------------------------------------|-
  G:2                                                                         

-|-----------------------------------------------------------------------|-||-
-|-----------------------------------------------------------------------|-||-
-|-7vv-9--10--5---9-10---3---9-10-512v-7-9-10-5--9-10--7--9-10-3---5----|-||-
-|-----------------------------------------------------------------------|-||-
-|-----------------------------------------------------------------------|-||-
-|-----------------------------------------------------------------------|-||-
  (Heavy part...G:1...and...G:2)  Dreamless   ...                             

-|----------------------------------------------------------------------------
-|----------------------------------------------------------------------------
-|----------------------------------------------------------------------------
-|--8/7-7-7-7-7-7-7-7----8/7-7-7-7-7-7-7-7----7-5-5-5-5-5-5-5-----4x----------
-|--8/7-7-7-7-7-7-7-7----8/7-7-7-7-7-7-7-7----7-5-5-5-5-5-5-5-----------------
-|--6/5-5-5-5-5-5-5-5----6/5-5-5-5-5-5-5-5----5-3-3-3-3-3-3-3-----------------
    And then...get ready for the Speaking part                                

----------------------------------------------------------------------------|-
----------------------------------------------------------------------------|-
----------------------------------------------------------------------------|-
-----8/7-7-7-7-7-7--7---2vvvvvvvvvvvvvvv------------------------------------|-
-----8/7-7-7-7-7-7--7---2vvvvvvvvvvvvvvv------------------------------------|-
-----6/5-5-5-5-5-5--5---0vvvvvvvvvvvvvvv------------------------------------|-
 G:1 (Clean sound)                                                            

-|----5--------3-------5-------1----3------5--------------------------------|-
-|----6--------4-------6-------2----4------6--------------------------------|-
-|----7--------5-------7-------3----5------7--------------------------------|-
-|----7--------5-------7-------3----5------7----------------------------2x--|-
-|----5--------3-------5-------1----3------5--------------------------------|-
-|--------------------------------------------------------------------------|-
 G:2  (With dist)         Solo(Play it gentle)                                

-|--------------------------------------13b-12-10-----------------------------
-|-------------------------5-8-10-8-10----------------------------------------
-|--7v-9-1012-10-9----5---------------------------3--5--7vvvvv---------------
-|----------------------------------------------------------------------2x----
-|----------------------------------------------------------------------------
-|----------------------------------------------------------------------------
 G:1                      Fast part                                           

-|----------------------------------------------------------------------------
-|----------------------------------------------------------------------------
-|----------------------------------------------------------------------------
-|-7-7-7-7-7-7-7-7-7-7-7-7-7-7--5-5-5-5-5-5-5-5-5-5-5--7-7-7-7-7-7-7-7-7-7-7--
-|-5-5-5-5-5-5-5-5-5-5-5-5-5-5--3-3-3-3-3-3-3-3-3-3-3--5-5-5-5-5-5-5-5-5-5-5--
-|----------------------------------------------------------------------------
                                                                              

-------------------------------------------------------------------------|-|--
-------------------------------------------------------------------------|-|--
-------------------------------------------------------------------------|-|--
---3-3-3-3-3-3--5-5-5-5-5-5--------------------2x------------------------|-|--
---1-1-1-1-1-1--3-3-3-3-3-3----------------------------------------------|-|--
-------------------------------------------------------------------------|-|--
 G:2                      Solo(Pretty fast)                                   

-|--------------------------|-----------------------|-----------------------|-
-|--------------------------|-----------------------|-----------------------|-
-|--7-9p7-7---10p7-7--------|-5-7p5-5--8p5-5--------|-7-9p7-7---10p7-7------|-
-|----------------------4x--|-----------------------|-----------------------|-
-|--------------------------|--------------------4x-|--------------------4x-|-
-|--------------------------|-----------------------|-----------------------|-
                                                                              

----------------------------------------------------------------------------|-
----------------------------------------------------------------------------|-
----3h5h6-3h5h6-3h5h6-3h5h6--5h7h8-5h7h8-5h7h8-5h7h8------------------------|-
-------------------------------------------------------------------2x-------|-
----------------------------------------------------------------------------|-
----------------------------------------------------------------------------|-
 G:1...G:2...    ^ Means ghost note                                           

-|----------------------7^-----------------------------12^------------------|-
-|----------------------7^-----------------------------12^------------------|-
-|--7----9---7---5------7^------9----11----9----7------12^------------------|-
-|--7----9---7---5------7^------9----11----9----7------12^------------------|-
-|--5----7---5---3--------------7----9-----7----5---------------------------|-
-|--------------------------------------------------------------------------|-
 G:1...G:2...                                                                 

-|----------------------------------------------------------------------------
-|----------------------------------------------------------------------------
-|----------------------------------------------------------------------------
-|-7-7-7-7-7-7-7-7-7-7-7-7-7-7---5-5-5-5-5-5-5-5-5-5-5------------------------
-|-5-5-5-5-5-5-5-5-5-5-5-5-5-5---3-3-3-3-3-3-3-3-3-3-3-5-5-5-5-5-5-5-5-5-5-5--
-|-----------------------------------------------------3-3-3-3-3-3-3-3-3-3-3--
                                                                              

------------------------------------------------------------------------------
------------------------------------------------------------------------------
------------------------------------------------------------------------------
------0--444-7-7-7-7-7-7-7-7-7-7-7-7-7-7-7-7-7--5-5-5-5-5-5-5-5-5-5-5-5-5-5---
-222--0--222-5-5-5-5-5-5-5-5-5-5-5-5-5-5-5-5-5--3-3-3-3-3-3-3-3-3-3-3-3-3-3---
-000--------------------------------------------------------------------------
                                                                              

----------------------------------------------------------------------------|-
----------------------------------------------------------------------------|-
----------------------------------------------------------------------------|-
------------------0--4-4-4-4-4-4-4-4-4-4-4-4-4-4-4-4-4-4-4-4----------------|-
--5-5-5-5-5-5--2--0--2-2-2-2-2-2-2-2-2-2-2-2-2-2-2-2-2-2-2-2----------------|-
--3-3-3-3-3-3--0------------------------------------------------------------|-
  Refr                                                                        

-|----------------------------------------------------------------------------
-|----------------------------------------------------------------------------
-|--7-----5------9-----7------------------------------------------------------
-|--7-----5------9-----7----555555555555555555555-222222222222222--4-4-4-4-4--
-|--5-----3------7-----5----333333333333333333333-000000000000000--2-2-2-2-2--
-|----------------------------------------------------------------------------
                                                                              

----------------------------------------------------------------------------|-
----------------------------------------------------------------------------|-
----------------------------------------------------------------------------|-
-4-4-4-4-4-4-4-4-4-4-------------------------2x-----------------------------|-
-2-2-2-2-2-2-2-2-2-2--------------------------------------------------------|-
----------------------------------------------------------------------------|-
  G:1     Now its time for the little solo                                      Ў

-|--------------------------------------------------------------------------|-
-|-1213-12--10-----1213-12-10------1213-12-10----------------------------|-
-|--------------9---------------12---------------9-10-9-1012-12-10-9-7-7---|-
-|--------------------------------------------------------------------------|-
-|--------------------------------------------------------------------------|-
-|-----------------------------------------------------------------------2x-|-
  G:2                                                                         

-|----------------------------------------------------------------------------
-|----------------------------------------------------------------------------
-|----------------------------------------------------------------------------
-|-9-9-9-9-9-9-9-9-9-9-9999----7-7-7-7-7-7-7-7-7-7-7-7-7-7-7-7--5-5-5-5-5-5-5-
-|-7-7-7-7-7-7-7-7-7-7-7777----5-5-5-5-5-5-5-5-5-5-5-5-5-5-5-5--3-3-3-3-3-3-3-
-|----------------------------------------------------------------------------
                                                                              

----------------------------------------------------------------------------|-
----------------------------------------------------------------------------|-
----------------------------------------------------------------------------|-
---5-5-5-5-5-5-5-5-5---7-7-7-7-7-7-7-7-7-7-7-7-----------------------2x-----|-
---3-3-3-3-3-3-3-3-3---5-5-5-5-5-5-5-5-5-5-5-5------------------------------|-
----------------------------------------------------------------------------|-
 G:1                                                                          

-|----------------------------------------------------------------------------
-|----------------------------------------------------------------------------
-|----------------------------------------------------------------------------
-|--9999999999999999999999999999---7777777777777777777777777--555555555555555-
-|--7777777777777777777777777777---5555555555555555555555555--333333333333333-
-|----------------------------------------------------------------------------
                                                                              

------------------------------------------------------------------------------
------------------------------------------------------------------------------
------------------------------------------------------------------------------
---7777777777777777777777777777777777777--------------------------------------
---5555555555555555555555555555555555555--------------------------------------
------------------------------------------------------------------------------
 G:2 (Solo) play it fast                                                      

-|----------------------------------------------------------------------------
-|--7------7------7-------7-----7b-7b---13p12p10-13p12p10-13p12p10-13p12p10---
-|----9vv----7vv-----5v------7------------------------------------------------
-|----------------------------------------------------------------------------
-|----------------------------------------------------------------------------
-|----------------------------------------------------------------------------
                                                                              

------------------------------------------------------------------------------
---13p12p10-13p12p10-13p12p10-13p12p10-13p12p10-13p12p10-13p12p10-13p12p10----
------------------------------------------------------------------------------
------------------------------------------------------------------------------
------------------------------------------------------------------------------
------------------------------------------------------------------------------
                                                                              

---------------------13-13-12-12-10--------13-13-12-12-15--------13-13-12-12--
---13b-12-12--10-10------------------10-10------------------10-10-------------
------------------------------------------------------------------------------
------------------------------------------------------------------------------
------------------------------------------------------------------------------
------------------------------------------------------------------------------
                                                                              

---10--------13-13-12-12-15--------13-13-12-12-10---------13-13-12-12-15------
-------10-10-----------------10-10------------------10-10---------------------
------------------------------------------------------------------------------
------------------------------------------------------------------------------
------------------------------------------------------------------------------
------------------------------------------------------------------------------
                                                                              

------13-12-13-15b-15b-15b|-8-8p12-8------8-8p12-8-----8-8p12-8----8-8p12-8---
--10----------------------|----------12------------12-----------12---------12-
--------------------------|---------------------------------------------------
--------------------------|---------------------------------------------------
--------------------------|---------------------------------------------------
--------------------------|---------------------------------------------------
                                                                              

--8-8p13-8-----8-8p13-8-----8-8p13-8-----8-8p13-8----|-----13b13b13b13b13b----
-----------12-----------12-----------12------------12|------------------------
-----------------------------------------------------|------------------------
-----------------------------------------------------|------------------------
---------------------------------------------------2x|------------------------
-----------------------------------------------------|------------------------
                                                                              

--------------------------------------------------12p000-10p000-8p000-10p000--
------------------------------------------------------------------------------
------------------------------------------------------------------------------
------------------------------------------------------------------------------
------------------------------------------------------------------------------
------------------------------------------------------------------------------
                                                                              

---12p0-13p0-12p000-10p000-8p000-10p000-12p0-13p0-----|-----------------------
------------------------------------------------------|-----------------------
------------------------------------------------------|-----------------------
---------------------------------------------------8x-|-----------------------
------------------------------------------------------|-----------------------
------------------------------------------------------|-----------------------
 Both guitars                                                                 

-|--------------------------------------------------------------------------|-
-|--------------------------------------------------------------------------|-
-|--------------------------------------------------------------------------|-
-|----------------------------------------------------------------------2x--|-
-|--------7--------8----------5----7----8------------------------------|-
-|-000000----000000-----0000000-----00----00--------------------------------|-
                                                                              

-|--------------------------------------------------|-----------------------|-
-|--------------------------------------------------|-----------------------|-
-|-5-7--7-7--7--7-7/-5-5--5-5-5--5p0--2-2-2-2-2-2-2|-3-3-3-2-2-2-2-2-------|-
-|-5-7--7-7--7--7-7/-5-5--5-5-5--5p0--2-2-2-2-2-2-2|-3-3-3-2-2-2-2-2-------|-
-|-3-5--5-5--5--5-5/-3-3--3-3-3--3p0--0-0-0-0-0-0-0|-1-1-1-0-0-0-0-0-------|-
-|--------------------------------------------------|-----------------------|-
   G:1                               Verse:                                   

-|--------------------------------------------------------------------------|-
-|--------------------------------------------------------------------------|-
-|--7-7-7-7-7-7-7-7-7-7-7-7-7-7--5-5-5-5-5-5-5-5-5-5-5-5--3-5--3-5--7-7-7---|-
-|--7-7-7-7-7-7-7-7-7-7-7-7-7-7--5-5-5-5-5-5-5-5-5-5-5-5--3-5--3-5--7-7-7---|-
-|--5-5-5-5-5-5-5-5-5-5-5-5-5-5--3-3-3-3-3-3-3-3-3-3-3-3--1-3--1-3--5-5-5---|-
-|--------------------------------------------------------------------------|-
   G:2                               Verse:                                   

-|--------------------------------------------------------------------------|-
-|--------------------------------------------------------------------------|-
-|--7-7-7-7-7-7-7-7-7----------5h7p5--5-5-5-5-5-5-5-5-5-5--3-5-3-5--7-7-7-7-|-
-|--7-7-7-7-7-7-7-7-7------5-7--------5-5-5-5-5-5-5-5-5-5--3-5-3-5--7-7-7-7-|-
-|--5-5-5-5-5-5-5-5-5--5-7------------3-3-3-3-3-3-3-3-3-3--1-3-1-3--5-5-5-5-|-
-|--------------------------------------------------------------------------|-
                                                                              

------------------------------------------------------------------------------
------------------------------------------------------------------------------
------------------------------------------------------------------------------
------------------------------------------------------------------------------
------------------------------------------------------------------------------
------------------------------------------------------------------------------
                                                                              



Добавлено: 12.12.2013
Вам также может быть интересно:
Другие материалы по этой песне:
  • Аккорды и текст

Страница создана 12.12.2013
http://primanota.ru/asteroidica/god-s-own-creation-chords.htm
Привет, Гость.
Предлагаем пройти революционный курс по гитаре.
Подарок от PrimaNota.Ru, забирай!