PrimaNota.ru - самый крупный в мире бесплатный архив песенных текстов, аккордов, табулатур и нот


Asteroidica - Asteroidica - таба, видео

Регистрация Запомнить меня
Войти через:  Facebook Google Twitter Vk Yandex Mail.ru

Asteroidica - Asteroidica - таба, видео

Печатать
Просмотров: 58


#-----------------------------------------------------------------------------#
#-- File created with Instab - http://www.pconline.com/~smcarey/instab.html --#
#-----------------------------------------------------------------------------#

Author/Artist: Asteroidica
Title: Asteroidica
Transcribed by: Jimmy Karlsson
Instrumental

-|-----------------------------------------|-|------------|-|----------|-|-|--
-|-----------------------------------------|-|------------|-|----------|-|-|--
-|--------------4----5---2-----------------|-|------------|-|----------|-|-|--
-|-2----2-2-----4----5---2---2--2-2--------|-|------3x----|-|----------|-|-|--
-|-2----2-2-----2----3---0---2--2-2--------|-|------------|-|----------|-|-|--
-|-0----0-0---0----0---------0--0-0--------|-|------------|-|----------|-|-|--
  Both Guitars                                                                

-|--------------------------------------------------------------------------|-
-|--------------------------------------------------------------------------|-
-|--9-9-9-9-101010109-9-9-9-7-7-7-7-9-9-9-910101010-9-9-9-9-7-7-7-7---------|-
-|--9-9-9-9-101010109-9-9-9-7-7-7-7-9-9-9-910101010-9-9-9-9-7-7-7-7-----2x--|-
-|--7-7-7-7-8-8-8-8-7-7-7-7-5-5-5-5-7-7-7-7-8-8-8-8-7-7-7-7-5-5-5-5---------|-
-|--------------------------------------------------------------------------|-
                                                                              

-|--------------------------------------------------------------------------|-
-|--------------------------------------------------------------------------|-
-|-2--4--5---9---7-------7-------------------2--4--5--9--12-12-12-12-12-----|-
-|-2--4--5---9---7------------7--7-7-7-7-7---2--4--5--9--12-12-12-12-12--1x-|-
-|-0--2--3---7---5---5-5---55----5-5-5-5-5---0--2--3--7--10-10-10-10-10-----|-
-|--------------------------------------------------------------------------|-
                                                                              

-|--------------------------------------------------------------------------|-
-|--------------------------------------------------------------------------|-
-|--------------------------------------------------------------------------|-
-|--9-9-9-9-101010109-9-9-9--7-7-7-7--9-9-9-9-101010109-9-9-9-7-7-7-7---2x--|-
-|--7-7-7-7-8-8-8-8-7-7-7-7--5-5-5-5--7-7-7-7-8-8-8-8-7-7-7-7-5-5-5-5-------|-
-|--------------------------------------------------------------------------|-
 G:2                                                                          

-|--------------------------------------------------------------------------|-
-|--------------------------------------------------------------------------|-
-|--79------79-------79------10---79-------79------79-----------------|-
-|--79------79-------7-9------10---79-------79------79-------10--10----|-
-|--57------57-------57------8----57-------57------57-------7---6-----|-
-|------0-0-------0-0------0-0------------0-0-------0-0------0-0------------|-
 G:1                                                                          

-|---------------------------------|--|----------------------------------|--|-
-|---------------------------------|--|-------------------------------4b-|--|-
-|-------------------------------4b|4x|-2h3p2-2-2-2h3p2-2-2-2h3p2-2-2----|2x|-
-|-2h3p2-2-2-2h3p2-2-2-2h3p2-2-2---|--|----------------------------------|--|-
-|---------------------------------|--|----------------------------------|--|-
-|---------------------------------|--|----------------------------------|--|-
                                                                              

----------------------------------|--|----------------------------------------
----------------------------------|--|----------------------------------------
-------------------------------4b-|2x|----------------------------------------
-2h3p2-2-2-2h3p2-2-2-2h3p2-2-2----|--|----------------------------------------
----------------------------------|--|----------------------------------------
----------------------------------|--|----------------------------------------
 G:2                                                                          

-|---------------------------------------|----------------------------------|-
-|---------------------------------------|----------------------------------|-
-|---------------------------------------|----------------------------------|-
-|---------------------------------2-3b--|------------------------------3-4b|-
-|-1-1-1-1-4--1-1-1-1-4--1-1-1-1-4-------|2-2-2-2-5-2-2-2-2-5-2-2-2-2-5-----|-
-|-------------------------------------2x|--------------------------------2x|-
 G:1                                                                          

-|--------------------------------------------------------------------------|-
-|--------------------------------------------------------------------------|-
-|--------------------------------------------------------------------------|-
-|-3-3-3-3-3-3-3-3-3-3-3-3-3------4-4-4-4-4-4-4-4-4-4-4-4-4-4-4-------------|-
-|-1-1-1-1-1-1-1-1-1-1-1-1-1------2-2-2-2-2-2-2-2-2-2-2-2-2-2-2-------------|-
-|--------------------------------------------------------------------------|-
 Both Guitars                                                                 

-|--------------------------------------------------------------------------|-
-|--------------------------------------------------------------------------|-
-|-2--4--5--9--7------7---------------------2--4--5--9--12--12-12-12-12-----|-
-|-2--4--5--9--7------------7---7-7-7-7-7---2--4--5--9--12--12-12-12-12-----|-
-|-0--2--3--7--5--5-5---5-5-----5-5-5-5-5---0--2--3--7--10--10-10-10-10-----|-
-|--------------------------------------------------------------------------|-
                                                                              

-|--------------------------------------------------------------------------|-
-|--------------------------------------------------------------------------|-
-|-9-9-9-910101010-9-9-9-9-7-7-7-7--9-9-9-910101010-9-9-9-9-7-7-7-7---------|-
-|-9-9-9-910101010-9-9-9-9-7-7-7-7--9-9-9-910101010-9-9-9-9-7-7-7-7---------|-
-|-7-7-7-7-8-8-8-8-7-7-7-7-5-5-5-5--7-7-7-7-8-8-8-8-7-7-7-7-5-5-5-5---------|-
-|------------------------------------------------------------------------2x|-
  G:2                                                                         

-|-------------------------------------------------------------------------2x-
-|----------------------------------------------------------------------------
-|----------------------------------------------------------------------------
-|--7-7-9-9-10-10-9-9--7-7-9-9-10-10-9-9--7-7-9-9-10-10-9-9--7-7-9-9-10-10-99-
-|--0-0-0-0--0--0-0-0--0-0-0-0--0--0-0-0--8-8-8-8--8--8-8-8--7-7-7-7--7--7-77-
-|----------------------------------------------------------------------------
  G:1                                                                         

-|------------------------------------------------------------------------4x|-
-|--------------------------------------------------------------------------|-
-|--------------------------------------------------------------------------|-
-|------------------------------------10101010101010101010--9-9-9-9-9-9-9999|-
-|---7-7-7-7-7-7-7-7-7-7-7-7-7-77777---8-8-8-8-8-8-8-8-8-8--7-7-7-7-7-7-7777|-
-|---5-5-5-5-5-5-5-5-5-5-5-5-5-55555----------------------------------------|-
                                                                              

----------------------------------------------------------------------------|-
----------------------------------------------------------------------------|-
--------------------------2-------------------------------------------------|-
---7-7-7-7-7-7-7-7-7-7-7--2-------------------------------------------------|-
---5-5-5-5-5-5-5-5-5-5-5--0-------------------------------------------------|-
----------------------------------------------------------------------------|-
  G:2..(G:1 play the part above)                                              

-|--------------------------------------------------------------------------|-
-|----17--15------------------------------17--15----------------------------|-
-|------------17-16--17-16---14--13---------------17-16-17--16----14---13v-v|-
-|--------------------------------------------------------------------------|-
-|--------------------------------------------------------------------------|-
-|--------------------------------------------------------------------------|-
                                                                              



Добавлено: 16.02.2014
Другие материалы по этой песне:
  • Аккорды и текст

Страница создана 16.02.2014
http://primanota.ru/asteroidica/asteroidica-chords.htm
Привет, Гость.
Предлагаем пройти революционный курс по гитаре.
Подарок от PrimaNota.Ru, забирай!