PrimaNota.ru - самый крупный в мире бесплатный архив песенных текстов, аккордов, табулатур и нот


Asteroid - Time - таба, видео

Регистрация Запомнить меня
Войти через:  Facebook Google Twitter Vk Yandex Mail.ru

Asteroid - Time - таба, видео

Печатать
Просмотров: 77
Here is the tab to Asteroid's 'Time.'


Riff 1 x2
------

D--------------------------------------------------------------|
A--------------------------------------------------------------|
F--------------------------------------------------------------|
C-----------0----3---5---5b6r5--3-------------------------3----|
G-----------------------------------5---3h5-----------3h5---5--|
C--0--0--3h5---------------------------------0----3h5----------|

D---------------------------------------------------------------|
A---------------------------------------------------------------|
F---------------------------------------------------------------|
C-----------0----3---5---5b6r5--3-------------------------------|
G-----------------------------------5---3h5-----------3h5-3-3/5-|
C--0--0--3h5---------------------------------0----3h5-----------|

These two fills are played at the ends of the riff.

D---------------|---------------------------|
A---------------|---------------------------|
F---------7/----|----------5--7-7-7-7p5-----|
C----5h7--------|-----5h7----------------7--|
G---------------|---------------------------|
C---------------|---------------------------|


Riff 1 x2
------

D---5---5------5---------------------------------------|
A-----------8-----8---6--8------5--5--3—5b6r5---3--5---|
F---------------------------7--------------------------|
C------------------------------------------------------|
G------------------------------------------------------|
C------------------------------------------------------|

D---5---5------5-----------------------------------------|
A-----------8-----8---6--8------5--5--3—5b6r5---3—5p3----|
F---------------------------7----------------------------|
C--------------------------------------------------------|
G--------------------------------------------------------|
C--------------------------------------------------------|

A secondary guitar can play these chords underneath it.

D------------------------|
A----3-------------------|
F----2--------------2----|
C----0--------------2----|
G----0--------------0----|
C----0-------------------|


Riff 3 x4
------

D--------------------------------------|
A---6------------6---------------------|
F------7---5--7-----7---7-7--5h7--7----|
C--------------------------------------|
G--------------------------------------|
C--------------------------------------|

D--------------------------------------|
A---6------------6---------------------|
F------7---5--7-----7---7-7--5h7--7----|
C--------------------------------------|
G--------------------------------------|
C--------------------------------------|

D----------------------------------------|
A-------------------------3-----2h3------|
F---5------------------------2-------2---|
C------7---5--7---3----------------------|
G--------------------5-------------------|
C----------------------------------------|

D-------------------------------------------|
A----------------------------3-----5p3------|
F---5---------------------------2-----------|
C------7----5--7---3h5----------------------|
G-----------------------5-------------------|
C-------------------------------------------|


Riff 4 x8
------

D--------------------------------------------------------|
A--------------------------------------------------------|
F--------------------------------------------------------|
C---7---7----10/12--10---7---5---------------7---2--5----|
G---5---5-----8/10---8---5---3--0--5--0--3---5---0--3----|
C----------------------------------5-----3---------------|


Riff 5
------

Strum these power chords however many times your heart desires.

D---------------------------------------|
A---------------------------------------|
F---------------------------------------|
C---5---5---5---5---5---5---5---5---6---|
G---3---3---3---3---3---3---3---3---4---|
C---------------------------------------|


Riff 4 x6
------

D--------------------------------------------------------|
A--------------------------------------------------------|
F--------------------------------------------------------|
C---7---7----10/12--10---7---5---------------7---2--5----|
G---5---5-----8/10---8---5---3--0--5--0--3---5---0--3----|
C----------------------------------5-----3---------------|


Riff 5
------

Again, strum these power chords how much as you would like.

D---------------------------------------|
A---------------------------------------|
F---------------------------------------|
C---5---5---5---5---5---5---5---5---6---|
G---3---3---3---3---3---3---3---3---4---|
C---------------------------------------|


Riff 4 x2
------

D--------------------------------------------------------|
A--------------------------------------------------------|
F--------------------------------------------------------|
C---7---7----10/12--10---7---5---------------7---2--5----|
G---5---5-----8/10---8---5---3--0--5--0--3---5---0--3----|
C----------------------------------5-----3---------------|


Riff 5
------

And again.

D---------------------------------------|
A---------------------------------------|
F---------------------------------------|
C---5---5---5---5---5---5---5---5---6---|
G---3---3---3---3---3---3---3---3---4---|
C---------------------------------------|


Riff 1 x until the song ends
------

D--------------------------------------------------------------|
A--------------------------------------------------------------|
F--------------------------------------------------------------|
C-----------0----3---5---5b6r5--3-------------------------3----|
G-----------------------------------5---3h5-----------3h5---5--|
C--0--0--3h5---------------------------------0----3h5----------|

D---------------------------------------------------------------|
A---------------------------------------------------------------|
F---------------------------------------------------------------|
C-----------0----3---5---5b6r5--3-------------------------------|
G-----------------------------------5---3h5-----------3h5-3-3/5-|
C--0--0--3h5---------------------------------0----3h5-----------|


There are bunch of mini-solos during the latter half of the song, but they can be 
mostly improvised.

Questions or comments: steveman1236@gmail.com
Добавлено: 22.10.2013
Вам также может быть интересно:
Другие материалы по этой песне:
  • Аккорды и текст

Страница создана 22.10.2013
http://primanota.ru/asteroid/time-chords.htm
Привет, Гость.
Предлагаем пройти революционный курс по гитаре.
Подарок от PrimaNota.Ru, забирай!