PrimaNota.ru - самый крупный в мире бесплатный архив песенных текстов, аккордов, табулатур и нот


Asteria - Drink Life To The Lees - текст песни, таба, видео

Регистрация Запомнить меня
Войти через:  Facebook Google Twitter Vk Yandex Mail.ru

Asteria - Drink Life To The Lees - текст песни, таба, видео

Печатать
Просмотров: 189
Уроки эстрадного вокала в Санкт-Петербурге
Song: Drink Life To The Lees
Artist: Asteria
Album: Slip Into Something More Comfortable (I think..)

This is the piano part in the beginning, I've tabbed it for keyboard/piano and arranged 
for guitar. I would tab the whole song if I had time and effort to spend =P

Standard Tuning

E|-------------3--2--|-------------3--2--0-----|
B|-------------------|----------------------3--|
G|-------------------|-------------------------|
D|-------------------|-------------------------|
A|-----5--7----------|-----5--7----------------|
e|--7----------------|--6----------------------|

E|-------------0-----|-------------------------|
B|----------------3--|----------3--2-----------|
G|-------------------|----------------3--------|
D|-------------------|-------------------------|
A|-----5--7----------|-----5-------------------|
e|--5----------------|--3----------------------|

Repeat x2

and that's it[:

Asteria=AMAZING<333
Their new album called Slip Into Something More Comfortable comes out on Feb. 20 [2007.]
Добавлено: 06.05.2012
Другие материалы по этой песне:
  • Аккорды и текст

Страница создана 06.05.2012
http://primanota.ru/asteria/drink-life-to-the-lees-chords.htm
Привет, Гость.
Предлагаем пройти революционный курс по гитаре.
Подарок от PrimaNota.Ru, забирай!