PrimaNota.ru - самый крупный в мире бесплатный архив песенных текстов, аккордов, табулатур и нот


Assorted Jelly Beans - Wiggerside - бас-таба, видео

Регистрация Запомнить меня
Войти через:  Facebook Google Twitter Vk Yandex Mail.ru

Assorted Jelly Beans - Wiggerside - бас-таба, видео

Печатать
Просмотров: 140
Band:   Assorted Jellybeans
Song:   Wiggerside
Album:  What's Really Going on!?!


This is actually the live version of the song, but it's pretty much the same as the regular version

Look them up on Youtube to see them live

Intro:
---------------------------6---6-------------6---6--|
------------------4-5-4--7---7------4-5-4--7---7----|
-4-5~----4-5~---5-----------------5-----------------|
----------------------------------------------------|

Bridge:
-----------------------------------|
-------------------------5-4-5-7---|
-555-------------------------------|
-----555-555-555-555-555-----------|

Pre-Verse:  ("Woooah-hooooah")
---------------------------------------------------------------------------|
--------4--------4--------4--------------------4--------4--------4-7777-5-4|
-555555------------555555---------------555555------------555555-----------|
----------555555------------555555-3-2-----------555555--------------------|

Verse: ("Riverside used to be a nice little city...")
----------------------------------------------------------|
--------4--------4--------4--7777-5-4---------4--------4--|
-555555------------555555--------------555555-------------|
----------555555--------------------------------555555----|

------------------------|
--------4--7777-5-------|
-555555-----------4-5---|
------------------------|


Interlude:
-----------------------6-7-9---7-7777-7-6-----------------|
--------4-5-7---7-7777--------------------7---------------|
-5-5555--------------------------------------555-555--7/5-|
----------------------------------------------------------|

--------------------6-7-9---7-777-7-6----7-777-6----|
------4-5-7---7-777-------------------7----------7--|
5-555-----------------------------------------------|
----------------------------------------------------|


Chorus: (“so just keep that in mind…”)
-----------7----------------------------|
-------------7--------------------------|
-555555-44----------------5-4---4-------|x4
----------------5555--2h3-----5---------|

Bridge 2:
------------------|
--------77-5-4~---|
-555555-----------|
------------------|

Verse 2:   ("We welcome you to Wig-ger-side, yeah!...")
-----------------------------------------------------------------------------|
-5----4-5--7-5-4-5--5----4-5--7-5-4-5--5----4-5--7-5-4-5/19-1919-18-19-18-19-|
---55-----------------55-----------------55----------------------------------|
-----------------------------------------------------------------------------|

--19-1818-19---|
---------------|
---------------|
---------------|


Interlude 2:
---------------------------------------|
--------4--------4--------4------------|
-5555-5------------5555-5--------------|
----------5555-5------------5-3-2-3----|


Intro 2:
------------6---6-----------------------|
---4-5-4--7---7-------4-5-4--7-5-4------|
-5------------------5--------------5----|
----------------------------------------|
pretty much the same as the first^ intro except for that little change

Verse

Interlude

Chorus

Bridge 2

Verse 2


Outro:
-----------------------------------------------------------------------|
--------4--------4--------4--77-xx-55-xx--------4--------4--------4----|
-5555-5------------5555-5----------------5555-5------------5555-5------|
----------5555-5-----------------------------------5555-5--------------|

                ("Wiggerrrrr Wiggerside, oh yeah…")
---------------------------------------------------------------------------|
---7777-5555-----------4--------4--------4-----4---4-----------4--------4--|
----------------555555------------555555-----5----------555555-------------|
-------------------------555555------------------5---------------555555----|

                                       ("yeah we're wiggerside")
--------------------------------------------------------------------------|
--------4--5-4---4-------------4--------4--------4-----------------4------|
-555555--------5--------555555------------555555-------------555555-------|
---------------------------------555555------------5-3-2-3----------------|

---------------------------------|
--------4--------4---4-5---------|
----------555555---------4-5~----|
-555555--------------------------|

Enjoy!!!
Добавлено: 22.06.2012
Вам также может быть интересно:
Другие материалы по этой песне:
  • Аккорды и текст

Страница создана 22.06.2012
http://primanota.ru/assorted-jelly-beans/wiggerside-chords.htm
Привет, Гость.
Предлагаем пройти революционный курс по гитаре.
Подарок от PrimaNota.Ru, забирай!