PrimaNota.ru - самый крупный в мире бесплатный архив песенных текстов, аккордов, табулатур и нот


Assorted Jelly Beans - Punk Rock Jock - бас-таба, видео

Регистрация Запомнить меня
Войти через:  Facebook Google Twitter Vk Yandex Mail.ru

Assorted Jelly Beans - Punk Rock Jock - бас-таба, видео

Печатать
Просмотров: 145
----------------------------------------------------------------------------
			  Punk Rock Jock - Assorted Jelly Beans
----------------------------------------------------------------------------

Tabbed By : Aaron (defectiveyouth1)
e-mail: aaronsmells26@yahoo.com

Tuning:standard
      verse
G|--------------------------|---------------------7---5--|
D|--------------------------|----------------------------|
A|-----------55-------44-33-|----------55-33--3-5---3----|
E|--33--3-66----33--3-------|-33--3-66-------------------|

     chorus
G|------------------------------------------|
D|------------------------------------------|
A|-----33-11-----33-11-----33-11-33445544---|
E|-33-3------33-3------33-3-----------------|

     instrumental/bridge thing
G|------------------------------------------------|
D|----------------22-55-22------------------------|
A|----22-55-22-33-------------22-55-22-55-33-22---|(play 2x)
E|-33----------------------33-------------------55|
     instrumental/bridge continued
G|---------------5-3-------------------------|
D|----5-3------------5-3----5-3-------7---5--|
A|--------5-3--3----------------5-3-5---3----|(play 2x)
E|-3----------------------3------------------|


       That is most of, if not all of the song. Listen to it to get the timing down right.

============================================================================
Добавлено: 19.05.2012
Другие материалы по этой песне:
  • Аккорды и текст

Страница создана 19.05.2012
http://primanota.ru/assorted-jelly-beans/punk-rock-jock-chords.htm
Привет, Гость.
Предлагаем пройти революционный курс по гитаре.
Подарок от PrimaNota.Ru, забирай!