PrimaNota.ru - самый крупный в мире бесплатный архив песенных текстов, аккордов, табулатур и нот


Assorted Jelly Beans - Plain Life - бас-таба, видео

Регистрация Запомнить меня
Войти через:  Facebook Google Twitter Vk Yandex Mail.ru

Assorted Jelly Beans - Plain Life - бас-таба, видео

Печатать
Просмотров: 25
-------------------------------------------------------------------------------
                             Plain Life - Assorted Jelly Beans
-------------------------------------------------------------------------------
Tabbed by: clockWorks10
E-mail: jonahcapani@gmail.com

Tuning: Standard (E, A, D, G)

 I Suggest using a pick for the best sound and ease, and an amp setup
 of very little mids, lots of trebble and bass
 on single-coil pickups would sound good for this.

As for playing is concerned, the bass part follows the vocals very closely so
Just listen to it and you will get it. The bass part is a little more nuanced than
what i have written (Striking open strings as grace notes in between fretted notes, Etc..)
So just listen to it, and you will just feel it.

It's skate punk, so it doesn't have to be perfect. Just have fun!
 
This is my first tab by the way so i hope you enjoy!

Intro:
G|---------7----------------7----------------6--------------------6----------|
D|-----------------------------------4---4-------4----5------5---------5-----|
A|-5---5-------5----5---5--------5-------------------------------------------|
E|---------------------------------------------------------------------------|

G|---------7----------------7----------------6--------------------6----------|
D|-----------------------------------4---4-------4----5------5---------5-----|
A|-5---5-------5----5---5--------5-------------------------------------------|
E|---------------------------------------------------------------------------|


G|---------7----------------7----------------6--------------------6----------|
D|-----------------------------------4---4-------4----5------5---------5-----|
A|-5---5-------5----5---5--------5-------------------------------------------|
E|---------------------------------------------------------------------------|


G|---------7----------------7------------------------------------------------|
D|-----------------------------------4---4----4-----5-----5------5-----------|
A|-5---5-------5----5---5--------5-------------------------------------------|
E|---------------------------------------------------------------------------|




Pre-verse: (Play Fast)
G|---------------------------------------------------------------------------|
D|---------------------------------------------------------------------------|
A|-----5---5-----5-5-5-5-5-5-----------------------------5---5----5-5-5-5-5--|
E|-----------------------------5---5-----5-----3-----3-----------------------|

G|---------------------------------------------------------------------------|
D|---------------------------------------------------------------------------|
A|-----------------------------5---5----5-5-5-5-5----------------------------|
E|----2----2------2--3------3-----------------------5---5---5----3----3------|

G|---------------------------------------------------------------------------|
D|----------------------5---5---5--5------7----7-----------------------------|
A|-5----5----5-5-5-5-5-------------------------------------------------------|
E|---------------------------------------------------------------------------|



Verse: (Bass notes closely follow the syllables in the words. 
Just listen to it and you will get it.)
G|---------------------------------------------------------------------------|
D|---------------------------------------------------------------------------|
A|--5---5----5----5---5------------------3---------5---5---5--5----5----5----|
E|------------------------3----3--3---3--------------------------------------|
  Standard days when I'm not looking at you. I'm thinking of all the things
G|---------------------------------------------------------------------------|
D|---------------------------------------------------------------------------|
A|--5---------------3---5----5--5---5--5---5--5------------------3--------5-5|
E|------3---3--3--------------------------------3---3---3--3-----------------|
  that I'd rather do. Not really thinking about what i want to be, that's 20
G|---------------------------------------------------------------------------|
D|---------------------------------------------------------------------------|
A|--5-----5---7---4---7----4------5/12\5--5---5----5----5--5----5----5-------|
E|------------------------------------------------------------------------3--|
  years from now so a lifetime to me.     Do you think i care when your that
G|---------------------------------------------------------------------------|
D|---------------------------------------------------------------------------|
A|--------3---5----5-----5--5---5----5---5-----------------3---3----5--5---5-|
E|-3---3-------------------------------------3----3-----3--------------------|
  mad at me? You might control the team but you can't control me. Not really 
G|---------------------------------------------------------------------------|
D|---------------------------------------------------------------------------|
A|---5---5--5-5------------------3---3--3---5--5--5---5---7----4-------------|
E|----------------3---3----3--3---------------------------------------3------|
  understanding what it takes to be a man, so i think IL stay a kid while 
G|---------------------------------------------------------------------------|
D|---------------------------------------------------------------------------|
A|---------------------------------------------------------------------------|
E|-2---3---2---3---2---3----2----3----2----3----2--------3--------3----------|
  i caaaaaaaaaaaaaaaaaaaaaaaaaaaaaaaaaaaaaaaaaaan


Refrain:
G|---------------------------------------------------------------------------|
D|---------------------------------------------------------------------------|
A|--5----5---5---5-5-5------------------------------5--5--5-----5---5--5-----|
E|------------------------5---5---5----3-------------------------------------|
  When will you realize this is your life. where nothing stays the same.
G|---------------------------------------------------------------------------|
D|---------------------------------------------------------------------------|
A|---------------5----5---5---5-5--5---------------------5-----5---5----5--5-|
E|--2-2---2-3-3-----------------------5----5---5----3------------------------|
               When will you realize this is your life. your life was always plain.
G|---------------------------------------------------------------------------|
D|---5--5---5---5-----7-----7------------------------------------------------|
A|---------------------------------------------------------------------------|
E|---------------------------------------------------------------------------|


Post chorus/ lead: This is why this tab is expert. This part is super fast when
 the bass doubles with the guitar during the guitar solo thing. good luck!

G|---------------------------------------------------------------------------|
D|---------------------5---5--5--5----7---7------------------------7---7-----|
A|-5----5--5-5--5--5--------------------------5---5-5--5-5-5-----------------|
E|-----------------------------------------------------------------------5--5|

G|---------------------------------------------------------------------------|
D|---------------------5--5--5---5----7----7---------------------------------|
A|-5---5--5--5--5-5-5-------------------------5----5--5--5--5--5-------------|
E|-----------------------------------------------------------------3--3--3---|

G|-------------------------7---5--4-----------------------12---10---9--------|
D|------------------4-5--7-----------7----------9--10--12--------------12----|
A|---------------5---------------------------10------------------------------|
E|---5-----5-----------------------------------------------------------------|

G|-----------------------------------------------------------------7---5---4-|
D|-------------------------------------------------------4--5---7------------|
A|-------9---10---12--------7---8---10----------------5----------------------|
E|---10-----------------8---------------2-3-2-3-2-3-2------------------------|

G|---------------------------12---10-9---------------------------------------|
D|--7-----------9--10--12---------------12-----------------------------------|
A|----------10------------------------------------9--10----12------7--8--10--|
E|-------------------------------------------10----------------8-------------|

G|---------------------------------------------------------------------------|
D|---------------------------------------------------------------------------|
A|------------------------4/5--=-4/5----4/5----4/5----4/5----5----5----------|
E|---2-3-2-3-2-3-2-----------------------------------------------------------|
      

       Guitar solo part.

G|---------------------------------------------------------------------------|
D|---------------------------------------------------------------------------|
A|-----5---5-----5-5-5-5-5-5-----------------------------5---5----5-5-5-5-5--|
E|-----------------------------5---5-----5-----3-----3-----------------------|

G|---------------------------------------------------------------------------|
D|---------------------------------------------------------------------------|
A|-----------------------------5---5----5-5-5-5-5----------------------------|
E|----2----2------2--3------3-----------------------5---5---5----3----3------|

G|---------------------------------------------------------------------------|
D|----------------------5---5---5--5------7----7-----------------------------|
A|-5----5----5-5-5-5-5-------------------------------------------------------|
E|---------------------------------------------------------------------------|

G|---------------------------------------------------------------------------|
D|---------------------------------------------------------------------------|
A|--5---5----5----5---5------------------3---------5---5---5--5----5----5----|
E|------------------------3----3--3---3--------------------------------------|

Verse: (Same as last time)
  Standard days when I'm not looking at you. I'm thinking of all the things
G|---------------------------------------------------------------------------|
D|---------------------------------------------------------------------------|
A|--5---------------3---5----5--5---5--5---5--5------------------3--------5-5|
E|------3---3--3--------------------------------3---3---3--3-----------------|
  that I'd rather do. Not really thinking about what i want to be, that's 20
G|---------------------------------------------------------------------------|
D|---------------------------------------------------------------------------|
A|--5-----5---7---4---7----4------5/12\5--5---5----5----5--5----5----5-------|
E|------------------------------------------------------------------------3--|
  years from now so a lifetime to me.     Do you think i care when your that
G|---------------------------------------------------------------------------|
D|---------------------------------------------------------------------------|
A|--------3---5----5-----5--5---5----5---5-----------------3---3----5--5---5-|
E|-3---3-------------------------------------3----3-----3--------------------|
  mad at me? You might control the team but you can't control me. Not really 
G|---------------------------------------------------------------------------|
D|---------------------------------------------------------------------------|
A|---5---5--5-5------------------3---3--3---5--5--5---5---7----4-------------|
E|----------------3---3----3--3---------------------------------------3------|
  understanding what it takes to be a man, so i think IL stay a kid while 
G|---------------------------------------------------------------------------|
D|---------------------------------------------------------------------------|
A|---------------------------------------------------------------------------|
E|-2---3---2---3---2---3----2----3----2----3----2--------3--------3----------|
  i caaaaaaaaaaaaaaaaaaaaaaaaaaaaaaaaaaaaaaaaaaan


Refrain (Mostly same as before):
G|---------------------------------------------------------------------------|
D|---------------------------------------------------------------------------|
A|--5----5---5---5-5-5------------------------------5--5--5-----5---5--5-----|
E|------------------------5---5---5----3-------------------------------------|
  When will you realize this is your life. where nothing stays the same.
G|---------------------------------------------------------------------------|
D|---------------------------------------------------------------------------|
A|---------------5----5---5---5-5--5---------------------5-----5---5----5--5-|
E|--2-2---2-3-3-----------------------5----5---5----3------------------------|
               When will you realize this is your life. your life is fucking plain.
G|---------------------------------------------------------------------------|
D|---5--5---5---5-----7-----7----(Strum all strings open)--------------------|
A|---------------------------------------------------------------------------|
E|---------------------------------------------------------------------------|


| /  slide up
| \  slide down
| h  hammer-on
| p  pull-off
| ~  vibrato
| +  harmonic
| x  Mute note
===============================================================================
Добавлено: 16.02.2016
Другие материалы по этой песне:
  • Аккорды и текст

Страница создана 16.02.2016
http://primanota.ru/assorted-jelly-beans/plain-life-chords.htm
Привет, Гость.
Предлагаем пройти революционный курс по гитаре.
Подарок от PrimaNota.Ru, забирай!