PrimaNota.ru - самый крупный в мире бесплатный архив песенных текстов, аккордов, табулатур и нот


Assorted Jelly Beans - Mr Bill - бас-таба, видео

Регистрация Запомнить меня
Войти через:  Facebook Google Twitter Vk Yandex Mail.ru

Assorted Jelly Beans - Mr Bill - бас-таба, видео

Печатать
Просмотров: 141
Intro:
G:-------------------|
D:----------------2--|
A:-222-3-0--222-3----| x4
E:-------------------|

G:---
D:---
A:-2- x1
E:---

Before verse:
G:-9-7-6-5-|
D:---------|
A:---------| x1
E:---------|

Verse:x3
G:-----------------------------------------------|
D:-----9-7------------------66-77-88-99-88-77-66-|
A:---------9------55-77-77-----------------------|
E:-777--------555--------------------------------|

G:-----------------------------------9-7-6-4-|
D:-----9-7------------------66-77-88---------|
A:---------9------55-77--77------------------|
E:-777--------555----------------------------|

end verse on:
G:----
D:----
A:---- x1
E:-7/-

Chorus:
G:----------------------------------------|
D:----------------------------------------|
A:--------77---------77---------77--------| x5
E:-777-55-----777-55-----777-55----888-7--|

end chorus on:
G:----
D:----
A:---- x1
E:-7/-

before verse x1

verse x3

end verse on x1

chorus x3

end chorus on x1
Добавлено: 11.04.2012
Другие материалы по этой песне:
  • Аккорды и текст

Страница создана 11.04.2012
http://primanota.ru/assorted-jelly-beans/mr-bill-chords.htm
Привет, Гость.
Предлагаем пройти революционный курс по гитаре.
Подарок от PrimaNota.Ru, забирай!