PrimaNota.ru - самый крупный в мире бесплатный архив песенных текстов, аккордов, табулатур и нот


Assertive Fluttershy - Boooring - таба, видео

Регистрация Запомнить меня
Войти через:  Facebook Google Twitter Vk Yandex Mail.ru

Assertive Fluttershy - Boooring - таба, видео

Печатать
Просмотров: 105
  so this is assertive fluttershy's boooring! this is the second tab i've ever mad so 
its a bit finicky in structure, but it is correct.i play it this way and it sounds brilliant.


E|----------------------------------|-------------------------------------|
B|--12--11------12--14--12--11--12--|--12--11------12--14--12--11---------|
G|----------11----------------------|----------11------------------11-----|
D|----------------------------------|-------------------------------------|
A|----------------------------------|-------------------------------------|
E|----------------------------------|-------------------------------------|



E|----------------------------------|------------------------------11--|
B|--12--11------12--14--12--11--12--|--12--11------12--14--12--14------|
G|----------11----------------------|----------11----------------------|
D|----------------------------------|----------------------------------|
A|----------------------------------|----------------------------------|
E|----------------------------------|----------------------------------|

   those are the vocals. repeat till the dubstep bit kicks in like this.

E|-----------------------------|-----------------------------|--|
B|-----------------------------|-----------------------------|--|
G|-----------------------4-----|-----------------------4--6--|--|
D|--6--6--6--x--x--x--6--4--4--|--6--6--6--x--x--x--6--4--6--|--|
A|--6--6--6--x--x--x--6--2--4--|--6--6--6--x--x--x--6--2--4--|--|
E|--4--4--4--x--x--x--4-----2--|--4--4--4--x--x--x--4--------|--|

    now theres this cool little medley.

E|--------------------------------------------------|-----|
B|--12--12--11--12------12--12--11--14--12--11--12--|-----|
G|------------------11------------------------------|-----|
D|--------------------------------------------------|-----|
A|--------------------------------------------------|-----|
E|--------------------------------------------------|-----|



E|----------------------11--11--14--11----------|-----|
B|--12--12--11--12--14------------------14------|-----|
G|------------------------------------------11--|-----|
D|----------------------------------------------|-----|
A|----------------------------------------------|-----|
E|----------------------------------------------|-----|



E|--------------------------14--11--16--14--18--19--19--19--19--|-----|
B|--12--12--11--12------12--------------------------------------|-----|
G|------------------11------------------------------------------|-----|
D|--------------------------------------------------------------|-----|
A|--------------------------------------------------------------|-----|
E|--------------------------------------------------------------|-----|



E|--19--18--16------------------|--|
B|--------------19--17--16--14--|--|
G|------------------------------|--|
D|------------------------------|--|
A|------------------------------|--|
E|------------------------------|--|
 so thats basicly every part of the song in order. as i said its correct. but  not a 
very pretty tab. much better than my last one though.
Добавлено: 12.09.2013
Другие материалы по этой песне:
  • Аккорды и текст

Страница создана 12.09.2013
http://primanota.ru/assertive-fluttershy/boooring-chords.htm
Привет, Гость.
Предлагаем пройти революционный курс по гитаре.
Подарок от PrimaNota.Ru, забирай!