PrimaNota.ru - самый крупный в мире бесплатный архив песенных текстов, аккордов, табулатур и нот


Assassin - Assassin - текст песни, таба, видео

Регистрация Запомнить меня
Войти через:  Facebook Google Twitter Vk Yandex Mail.ru

Assassin - Assassin - текст песни, таба, видео

Печатать
Просмотров: 265
-----------0----------------------0----------------------0------------------|
------------0----------------------0----------------------0-----------------|
---------0---0----0---0---------0---0----0---0---------0---0----0---0-------|
--------2--------2---2---------2--------2---4---------2--------2---2--------|
-------2--------3---2---------2--------3---5---------2--------3---2---------|
-3-2-0---------0--------3-2-0---------0--------3-2-0---------0--------3-2-0-|

-----0------------0---------0-------0-------0-------0-------0-------3-2-2h3-|
------0----------3-3-------0-0-----0-0-----0-0-----0-0-----0-0-----3--------|
---0---0----0---0---0-----0---0---0---0---0---0---0---0---0---0---0---------|
--2--------2---4-----4---5-----5-5-----5-5-----5-5-----5-2-----2-0----------|
-2--------3---5-------5-7-------6-------5-------4-------3-------3-----------|
---------0------------------------------------------------------------------|

-2------0-------0-------0-------0-------0-------3-2-2h3-2-------------------|
--3----0-0-----0-0-----0-0-----0-0-----0-0-----3---------3------------------|
------0---0---0---0---0---0---0---0---0---0---0-----------------------------|
-----5-----5-5-----5-5-----5-5-----5-2-----2-0---------------2--------------|
----7-------6-------5-------4-------3-------3----------------2--------------|
-------------------------------------------------------------0--------------|

----------------------------------------------------------------------------|
----------------------------------------------------------------------------|
----------------------------------------------------------------------------|
-2-222-2-2-22-5--2-222-2--22-7--2-222-2-2-22-5-22-7-----------2-222-2--22-5-|
-2-222-2-2-22-3--2-222-2--22-5--2-222-2-2-22-3-22-5--5--4--3--2-222-2--22-3-|
-0-000-0-0-00----0-000-0--00----0-000-0-0-00---00----3--2--1--0-000-0--00---|

----------------------------------------------------------------------------|
----------------------------------------------------------------------------|
----------------------------------------------------------------------------|
-2-222-2--22-7--2-222-2--22-5-22-7-----------2-222-222-222-222-222-222-22---|
-2-222-2--22-5--2-222-2--22-3-22-5--5--4--3--2-222-222-222-222-222-222-22---|
-0-000-0--00----0-000-0--00---00----3--2--1--0-000-000-000-000-000-000-003v-|

----------------------------------------------------------------------------|
----------------------------------------------------------------------------|
----------------------------------------------------------------------------|
--2-222-222-222-222-222-222-2210-2-222-222-222-222-222-222-22----2-222-222--|
--2-222-222-222-222-222-222-228--2-222-222-222-222-222-222-22----2-222-222--|
--0-000-000-000-000-000-000-00---0-000-000-000-000-000-000-003v--0-000-000--|

----------------------------------------------------------------------------|
----------------------------------------------------------------------------|
----------------------------------------------------------------------------|
-222-222-222-222-2210-2-2---------------------------------------------------|
-222-222-222-222-228--2-2---------------------------------------------------|
-000-000-000-000-00---0-0---------------------------------------------------|

I still need to finish it, oh and this song isn't that fast until it hits the end 

http://www.myspace.com/assassinthrashmetal
Добавлено: 04.07.2012
Другие материалы по этой песне:
  • Аккорды и текст

Страница создана 05.05.2012
http://primanota.ru/assassin/assassin-chords.htm
Привет, Гость.
Предлагаем пройти революционный курс по гитаре.
Подарок от PrimaNota.Ru, забирай!