PrimaNota.ru - самый крупный в мире бесплатный архив песенных текстов, аккордов, табулатур и нот


Asphyx - We Doom You To Death - таба, видео

Регистрация Запомнить меня
Войти через:  Facebook Google Twitter Vk Yandex Mail.ru

Asphyx - We Doom You To Death - таба, видео

Печатать
Просмотров: 45
Авторы: Martin van Drunen, Alwin Zuur, Paul Baayens, Bob Bagchus

-------------------------------------------------------------------------------
                        We Doom You To Death - Asphyx
-------------------------------------------------------------------------------

Tuning: D G C F A D

Intro (2x)
d|-----------------------------|----------------------------|
A|-----------------------------|----------------------------|
F|-----------------------------|----------------------------|
C|-----------------------------|------------------------2-2-|
G|-2--2---5----3-----3----0--2-|-2--2---5----3-----3----0-0-|
D|-0----0----0-----0---0-------|-0----0----0-----0---0------|

Verse (1x)
d|--------------------------------|--------------------------------|
A|--------------------------------|--------------------------------|
F|--------------------------------|--------------------------------|
C|--------------------------------|--------------------------------| (3x)
G|-2--2--2--2--2------2------2----|-2--2--2--2--2------2------2----|
D|-0--0--0--0--0--3---0--2---0--1-|-0--0--0--0--0--3---0--2---0--1^|
      .  .  .  .      .      .         .  .  .  .      .      .

d|--------------------------------|--------------------------------|
A|--------------------------------|--------------------------------|
F|--------------------------------|--------------------------------|
C|----------------5------4------3-|----------------5------4------3-| (1x)
G|-2--2--2--2--2--5---2--4---2--3-|-2--2--2--2--2--5---2--4---2--3-|
D|-0--0--0--0--0--3---0--2---0--1-|-0--0--0--0--0--3---0--2---0--1-|
      .  .  .  .      .      .         .  .  .  .      .      .

Intro (2x)

Verse (1x)

Bridge (8x)
d|------------------------|---------------------------|
A|------------------------|---------------------------|
F|------------------------|---------------------------|
C|------------------------|----2--3-----3--5--5--5--3-|
G|-2--2--2--2--2--2--2--2-|-2--2--3--3--3--5--5--5--3-|
D|-0--0--0--0--0--0--0--0-|-0--0--1--1--1--3--3--3--1-|
      .  .  .  .  .  .  .   .        .

Break A (1x)
d|---------------------------|---------------------|
A|---------------------------|---------------------|
F|---------------------------|---------------------|
C|-4----------4--5-----3-----|-4-------------------|
G|-2----------2--5-----3-----|-2-------------------|
D|-2----------2--3-----1-----|-2-------------------|

Break B (2x)
d|---------------------------|---------------------|      
A|---------------------------|---------------------|      
F|---------------------------|---------------------|      
C|-4----------4--5-----3-----|-2-------------------| 
G|-2----------2--5-----3-----|-2-------------------|      
D|-2----------2--3-----1-----|-0-------------------|      

Half Break (1x)
d|---------------------------|
A|---------------------------|
F|---------------------------|
C|-4----------4--5-----3-----|
G|-2----------2--5-----3-----|
D|-2----------2--3-----1-----|

Bridge (8x)

Half Break (1x)

Verse (1x)

Intro (9x)
Добавлено: 06.11.2015
Другие материалы по этой песне:

Страница создана 20.04.2012
http://primanota.ru/asphyx/we-doom-you-to-death-chords.htm
Привет, Гость.
Предлагаем пройти революционный курс по гитаре.
Подарок от PrimaNota.Ru, забирай!