PrimaNota.ru - самый крупный в мире бесплатный архив песенных текстов, аккордов, табулатур и нот


Asphyx - Streams Of Ancient Wisdom - текст песни, таба, видео

Регистрация Запомнить меня
Войти через:  Facebook Google Twitter Vk Yandex Mail.ru

Asphyx - Streams Of Ancient Wisdom - текст песни, таба, видео

Печатать
Просмотров: 129
___________________________________________________________________________________
-ASPHYX - STREAMS OF ANCIENT WISDOM from "Last One on Earth" (c) 1992 Century Media
-Transcribed by Chris Myhre. Version 1.3 June 2002 (ver 1.2 Feb 01)
-For questions, corrections, etc email me: bowel_ripper@hotmail.com
-For best print edit the left/right margins in page setup to make the tab fit the sheet
-Tuning: one step down (1:D, 2:A, 3:F, 4:C, 5:G, 6:D)
-Notation legend: . = (heavy) palm mute; / = slide up; \ = slide down

1>|gtr 1----------------------------------x8--riff B-------------x4--riff C-------
2>|gtr 2 joins 5th time--------------------|----------------------|---------------
3>|----------------------------------------|----------------------|---------------
4>|----------------------------------------|-----/9----8----------|---------------
5>|----------------------------------------|2----/7----6----9--5--|2-----2--1--5--
6>|0--0-0-0--0--0-0-0--0--0-0-0--0--0-0-0--|0-----0----6----7--3--|0---0-2--1--3--
   .  . . .  .  . . .  .  . . .  .  . . .			       .
   ___________ ___________
  | 1,3,5     ' 2,4,6    x6---riff D-------------------------------------------x4-----x2
  ------------'-----------|-----------------------------------------------------|------|
  ------------'-----------|-----------------------------------------------------|repeat|
  ------------'-----------|-----------------------------------------------------|riff C|
  ---8\7-10\9-'--8-7-10-9-|-----------------------------------------------------|------|
  -0-6\5-8-\7-'0-6-5-8--7-|000-000-000-000-000-000-000-000-000-8888887777775555-|------|
   .	       . . . .  .  ... ... ... ... ... ... ... ... ...

  |--riff E1--------------------------x2---riff E2--------------------------x2-(w/lead)-x4
  |------------------------------------'-------------------------------------|-----------|
  |------------------------------------'-------------------------------------|-repeat----|
  |------------------------------------'-------------------------------------|-riff B----|
  |2--4--3--4--8--9--2--4--3--4--6--5--'2--4--3--4--8\7-8--2--4--3--4--6--5--|-----------|
  |0--2--1--2--6--7--0--2--1--2--4--3--'0--2--1--2--6\5-6--0--2--1--2--4--3--|-----------|
   .  .  .  .  .  .  .  .  .  .  .  .

  |-----x4-----x4---------------------------------------x2----------|(fade-out)|
  |------|------'----------------------------------------|----------|----------|
  |repeat|repeat'----------------------------------------|--repeat--|--repeat--|
  |riff C|riff D'----------------------------------------|riffs E1/2|--riff A--|
  |------|------'----------------------------------------|----------|----------|
  |------|------'0000000000000000000000008888887777775555|----------|----------|
		 ........................

   LEAD(w/delay)
  |-----10----15h18p15p13h15h18p15p13-15---13----13~--------------------------
  |8------------------------------------------16--------16-15-12----11-10-11--
  |---------------------------------------------------------------------------
  |---------------------------------------------------------------------------
  |---------------------------------------------------------------------------
  |---------------------------------------------------------------------------

     s
  ----12-14-15-14-12--------------------------------------------------------------------
  --16---------------15-14-12-----------------------------------------------12h13-12~---
  ----------------------------13-15-13-12-13-15-13-12-13~----13-12----------------------
  -----------------------------------------------------------------14/15----------------
  --------------------------------------------------------------------------------------
  --------------------------------------------------------------------------------------

  -15h16-18br--18br-16-15-----------------------------------------------------------------|
  ------------------------16---16h18-16---------------------------------------------------|
  --------------------------------------15---14-15-----------------12-14-14-12-14~-----\--|
  -------------------------------------------------------12h13-12^------------------------|
  ---------------------------------------------------12^----------------------------------|
  ----------------------------------------------------------------------------------------|

	Check out my personal tablature page where you can find all my newest tabs:

				http://home.no.net/bowelri
Добавлено: 19.05.2012
Другие материалы по этой песне:
  • Аккорды и текст

Страница создана 19.05.2012
http://primanota.ru/asphyx/streams-of-ancient-wisdom-chords.htm
Привет, Гость.
Предлагаем пройти революционный курс по гитаре.
Подарок от PrimaNota.Ru, забирай!