PrimaNota.ru - самый крупный в мире бесплатный архив песенных текстов, аккордов, табулатур и нот


Asphyx - Scorbutics - таба, видео

Регистрация Запомнить меня
Войти через:  Facebook Google Twitter Vk Yandex Mail.ru

Asphyx - Scorbutics - таба, видео

Печатать
Просмотров: 27
Авторы: Martin van Drunen, Paul Baayens, Bob Bagchus

-------------------------------------------------------------------------------
                             Scorbutics - Asphyx
-------------------------------------------------------------------------------

Tuning: D G C F A D

Verse (1x)
d|-------------------------------------|-------------------------------|
A|-------------------------------------|-------------------------------|
F|-------------------------------------|-------------------------------|
C|-9-----------------9-----------------|-9-----------------10-10-10-10-|(7x)
G|-7-----------------7-----------------|-7-----------------8--8--8--8--|
D|---0-0-0-0-0-0-0-0---0-0-0-0-0-0-0-0-|---0-0-0-0-0-0-0-0-------------|

d|-------------------------------------|---------------------------|
A|-------------------------------------|---------------------------|
F|-------------------------------------|---------------------------|
C|-9-----------------9-----------------|-9-----------------3-3-3-3-| (1x)
G|-7-----------------7-----------------|-7-----------------3-3-3-3-|
D|---0-0-0-0-0-0-0-0---0-0-0-0-0-0-0-0-|---0-0-0-0-0-0-0-0-1-1-1-1-|

Break (4x)
d|---------------------------------|--------------------------------|
A|---------------------------------|--------------------------------|
F|---------------------------------|--------------------------------|
C|----------9-----------9-/-10-9-7-|----------9----------10------12-|
G|----------7-----------7-/-8--7-5-|----------7----------8-------10-|
D|-0-0-0-0-----0-0-0-0-------------|-0-0-0-0-----0-0-0-0----0-0-----|
   . . . .     . . . .               . . . .    . . . .     . .

Verse (1x)

Break (4x)

Verse 2 (6x) 
d|-----------------------------------|    |-------------|
A|-----------------------------------|    |-------------|
F|-----------------------------------|    |-------------|
C|-9---------------------------------|(3x)|-10-10-10-10-|(1x)
G|-7---------------------------------|    |-8--8--8--8--|
D|---0-0-0-0-0-0-0-0-0-0-0-0-0-0-0-0-|    |-------------|

Chorus (1x)
d|---------------------------|---------------------------|
A|---------------------------|---------------------------|
F|---------------------------|---------------------------|
C|---------------------------|---------------------------| (4x)
G|---------------------------|---------------------------|
D|-1--0--0-0-0--0--0--0-0-0--|-3--0--0-0-0--0--0--0-0-0--|
      .  . . .  .  .  . . .       .  . . .  .  .  . . .

d|---------------------------|---------------------------|
A|---------------------------|---------------------------|
F|---------------------------|---------------------------|
C|---------------------------|---------------------------| (4x)
G|-3-------------------------|-5-------------------------|
D|-1--0--0-0-0--0--0--0-0-0--|-3--0--0-0-0--0--0--0-0-0--|
      .  . . .  .  .  . . .       .  . . .  .  .  . . .

Verse 2 (6x)

Chorus (1x)

Break (4x)

Verse 2 (3x)

End
d|-----------------------------------|    |----------------------|
A|-----------------------------------|    |----------------------|
F|-----------------------------------|    |----------------------|
C|-9---------------------------------|(3x)|----------------------|
G|-7---------------------------------|    |-3--3--3--3--2--------|
D|---0-0-0-0-0-0-0-0-0-0-0-0-0-0-0-0-|    |-1--1--1--1--0--------|
Добавлено: 06.11.2015
Другие материалы по этой песне:

Страница создана 24.04.2012
http://primanota.ru/asphyx/scorbutics-chords.htm
Привет, Гость.
Предлагаем пройти революционный курс по гитаре.
Подарок от PrimaNota.Ru, забирай!