PrimaNota.ru - самый крупный в мире бесплатный архив песенных текстов, аккордов, табулатур и нот


Asphyx - As The Magma Mammoth Rises - таба, видео

Регистрация Запомнить меня
Войти через:  Facebook Google Twitter Vk Yandex Mail.ru

Asphyx - As The Magma Mammoth Rises - таба, видео

Печатать
Просмотров: 70
-------------------------------------------------------------------------------
                As The Magma Mammoth Rises - Asphyx
-------------------------------------------------------------------------------

Tuning: D G C F A D

Intro (1x)
d|----------------------------|
A|----------------------------|
F|--------6--6--6/7--7--4--4--|
C|--------6--6--6/7--7--4--4--|(4x)
G|--4-----4--4--4/5--5--2--2--|
D|--4-------------------------|

Verse (6x)
d|--------------------------------|    |--------------------------------|
A|--------------------------------|    |--------------------------------|
F|--------6--6--6/7-7-7-7-4-4-4-4-|    |--------------------------------|
C|--------6--6--6/7-7-7-7-4-4-4-4-|(3x)|--------------------------------|(1x)
G|--4-----4--4--4/5-5-5-5-2-2-2-2-|    |-5--5--5--5--5-5--5--5/7--7--7--|
D|--4-----------------------------|    |-5--5--5--5--5-5--5--5/7--7--7--|

Bridge (4x)
d|-------------------------|----------------------------------|
A|-------------------------|----------------------------------|
F|-------------------------|----------------------------------|
C|-------------------------|----------------------------------|
G|-4-----------4-----------|-4/5-----2--------4--------4/5\4--|
D|-4--4--4--4--4--4--4--4--|-4/5--4--2--4--4--4--4--4--4/5\4--|
      .  .  .     .  .  .         .     .  .     .  .

Verse (4x)

Break (1x)
d|---------------------|-----------------------------|
A|---------------------|-----------------------------|
F|---------------------|-----------------------------|
C|-6\\\----------------|-7-------------9-------------|
G|-4\\\4\\\x--2--2--2--|-5----2--2--2--7----2--2--2--|
D|-4\\\4\\\x--0--0--0--|-5----0--0--0--7----0--0--0--|
              .  .  .         .  .  .       .  .  .
d|---------------------|-----------------------------|
A|---------------------|-----------------------------|
F|---------------------|-----------------------------|
C|-6-------------------|-10------------9-------------|
G|-4----------2--2--2--|-8----2--2--2--7----2--2--2--|
D|-4----------0--0--0--|-8----0--0--0--7----0--0--0--|
              .  .  .         .  .  .       .  .  .
d|---------------------|-----------------------------|
A|---------------------|-----------------------------|
F|---------------------|-----------------------------|
C|-6-------------------|-7-------------9-------------|
G|-4----------2--2--2--|-5----2--2--2--7----2--2--2--|
D|-4----------0--0--0--|-5----0--0--0--7----0--0--0--|
              .  .  .         .  .  .       .  .  .
d|---------------------|-----------------------------|
A|---------------------|-----------------------------|
F|---------------------|-----------------------------|
C|-6-------------------|-10------------9-------------|
G|-4----------2--2--2--|-8-------------7-------------|
D|-4----------0--0--0--|-8-------------7-------------|
              .  .  .

Fast Bridge (2x)
d|---------------------|---------------------|
A|---------------------|---------------------|
F|---------------------|---------------------|
C|-6----6----6----6----|-7----7----9----9----|
G|-4----4----4----4----|-5----5----7----7----|
D|-4----4----4----4----|-5----5----7----7----|

d|------------------------|---------------------|
A|------------------------|---------------------|
F|------------------------|---------------------|
C|----6----6----6----6----|-10---10---9----9----|
G|-0--4----4----4----4----|-8----8----7----7----|
D|-0--4----4----4----4----|-8----8----7----7----|
   .

Fast Verse (2x)
d|---------------------------------|---------------------------------|
A|---------------------------------|---------------------------------|
F|---------------------------------|---------------------------------|
C|---------------------------------|---------------------------------|(3x)
G|---------------------------------|---------------------------------|
D|-0-0-0-0-4-4-4-4-3-3-3-3-1-1-1-1-|-3-3-3-3-1-1-1-1-0-0-0-0-1-1-1-1-|

d|---------------------------------|---------------------------------|
A|---------------------------------|---------------------------------|
F|---------------------------------|---------------------------------|
C|---------------------------------|---------------------------------|(1x)
G|---------------------------------|-----------------2-------3-------|
D|-0-0-0-0-4-4-4-4-3-3-3-3-1-1-1-1-|-3-3-3-3-1-1-1-1-0-------1-------|

Fast Bridge (2x)

Fast Verse (2x)

Verse (5x)

Bridge (4x)

End
d|----------------|
A|----------------|
F|----------------|
C|----------------|
G|--4-------------|
D|--4-------------|
Добавлено: 06.11.2015
Другие материалы по этой песне:

Страница создана 08.07.2013
http://primanota.ru/asphyx/as-the-magma-mammoth-rises-chords.htm
Привет, Гость.
Предлагаем пройти революционный курс по гитаре.
Подарок от PrimaNota.Ru, забирай!