PrimaNota.ru - самый крупный в мире бесплатный архив песенных текстов, аккордов, табулатур и нот


Asparagus - Silly Thing - таба, видео

Регистрация Запомнить меня
Войти через:  Facebook Google Twitter Vk Yandex Mail.ru

Asparagus - Silly Thing - таба, видео

Печатать
Просмотров: 118
Band: ASPARAGUS
Song: Silly Thing
Album: Mont Blanc (2007)
                                 




     E  E  E   E  E  E   E  E     E  E  E   E  E  E   E  E   
E||----------------------------|----------------------------|
B||----------------------------|----------------------------|
G||------------------2p--0-----|----------------------------|
D||--------2p--0------------4--|--------4p--0-----4p--0--7--|
A||-----0----------------------|-----0----------------------|
D||--0------------4------------|--2------------5------------|


  E  E  E   E  E  E   E  E     E  E  E   E  E  E  E  E     Q.     Q.     Q     
----------------------------|---------------------------|---------------------|
----------------------------|---------------------------|---------------------|
-----7-------------------2--|---------------------------|----------------4----|
--------7s--5-----2p--0-----|--------4p--0-----4--x--x--|--0------4------2----|
---------------0------------|-----0---------------x--x--|--0------4------2----|
--0-------------------------|--2------------5-----x--x--|--0------4------2----|


  Q    E  E  E  E  Q       Q.     Q.     Q       Q    E  E  E  E  Q      
------------------------|---------------------|------------------------||
------------------------|---------------------|------------------------||
--7----7--6--6--7-------|----------------4----|--7----7--6--6--7-------||
--5----5--5--5--5--x----|--0------4------2----|--5----5--5--5--5--x----||
--5----5--5--5--5--x----|--0------4------2----|--5----5--5--5--5--x----||
--5----5--5--5--5--x----|--0------4------2----|--5----5--5--5--5--x----||



Duration Legend
---------------
Q - quarter
E - 8th


Tablature Legend
----------------
x - dead note
p - pull off
s - legato slide
Добавлено: 30.06.2015
Вам также может быть интересно:
Другие материалы по этой песне:

Страница создана 30.06.2015
http://primanota.ru/asparagus/silly-thing-chords.htm
Привет, Гость.
Предлагаем пройти революционный курс по гитаре.
Подарок от PrimaNota.Ru, забирай!