PrimaNota.ru - самый крупный в мире бесплатный архив песенных текстов, аккордов, табулатур и нот


Asparagus - Jerk - таба, видео

Регистрация Запомнить меня
Войти через:  Facebook Google Twitter Vk Yandex Mail.ru

Asparagus - Jerk - таба, видео

Печатать
Просмотров: 114
Band: ASPARAGUS
Song: Jerk
Album: Mont Blanc (2007)
                        

(BONUS)

Bass Intro 

     E  E  E  E  E  E  E  E     E  E  E  E  E  E  E   E   
G||--------------------------|---------------------------|
D||--------------------------|---------------------------|
A||--------------------------|--1--1-----1--1--1--1s--3--|
E||--3--3--3--3--3--3--3--3--|--------3------------------|


  E  E  E  E  E  E  E  E     E  E  E  E  E  E  E  E    
--------------------------|--------------------------||
--------------------------|--------------------------||
--3--3--3--3--3--3--3-----|--------------------------||
-----------------------4--|--4--4--4--4--4--4--4--4--||



Intro

   S  S  S  S Q     S  S S  S  Q     
------------------------------------|
--10-10-10-10------10-10---10-10----|
--10-10-10-10------10-10---10-10----|
---8--8--8--8-------8--8----8--8----|
--10-10-10-10------10-10---10-10----|
------------------------------------|


   S  S  S  S Q     S  S  S  S  E   E   
---------------------------------------|
--10-10-10-10------10-10-10-10-10--10--|
--10-10-10-10------10-10-10-10-10--10--|
---8--8--8--8-------8--8--8--8--8---8--|
--10-10-10-10------10-10-10-10-10--10--|
---------------------------------------|


   S  S  S  S Q     S  S  S  S  E   E   
---------------------------------------|
--10-10-10-10------10-10-10-10-10--10--|
--10-10-10-10------10-10-10-10-10--10--|
---8--8--8--8-------8--8--8--8--8---8--|
--10-10-10-10------10-10-10-10-10--10--|
---------------------------------------|


   S  S  S  S Q     S  S S  S  Q     
------------------------------------|
--10-10-10-10------10-10---10-10----|
--10-10-10-10------10-10---10-10----|
---8--8--8--8-------8--8----8--8----|
--10-10-10-10------10-10---10-10----|
------------------------------------|


   S  S  S  S Q     S  S  S  S  Q     
--13-13-13-13------13-13-13-13-13----|
--10-10-10-10------10-10-10-10-10----|
--12-12-12-12------12-12-12-12-12----|
--12-12-12-12------12-12-12-12-12----|
-------------------------------------|
-------------------------------------|


   S  S  S  S Q     S  S  S  S  E   E   
--13-13-13-13------13-13-13-13-13--13--|
--10-10-10-10------10-10-10-10-10--10--|
--12-12-12-12------12-12-12-12-12--12--|
--12-12-12-12------12-12-12-12-12--12--|
---------------------------------------|
---------------------------------------|


   S  S  S  S Q     S  S  S  S  Q     
--13-13-13-13------13-13-13-13-13----|
--10-10-10-10------10-10-10-10-10----|
--12-12-12-12------12-12-12-12-12----|
--12-12-12-12------12-12-12-12-12----|
-------------------------------------|
-------------------------------------|


   S  S  S  S Q     S  S  S  S  E   E   
--13-13-13-13------13-13-13-13-13--13--|
--10-10-10-10------10-10-10-10-10--10--|
--12-12-12-12------12-12-12-12-12--12--|
--12-12-12-12------12-12-12-12-12--12--|
---------------------------------------|
---------------------------------------|


    E   Q    E   E   E  E   E   
|------10---------------8--10--|
|------------8--10--11---------|
|*-----------------------------|
|*-----------------------------|
|------------------------------|
|------------------------------|


  Q     E   E  E   E   E  E   
-------11--10--8-------------|
--8---------------11--10--8--|
-----------------------------|
-----------------------------|
-----------------------------|
-----------------------------|


   Q    E   E   E  E   E  E   
--10---------------8--10-----|
--------8--10--11---------8--|
-----------------------------|
-----------------------------|
-----------------------------|
-----------------------------|


   E  E  E  E  E  E  E  E             
--10-----8--------6---------|
------6-----6--4-----4--3---|
---------------------------*|
---------------------------*|
----------------------------|
----------------------------|



Verse x2

    Q    Q    E  Q. 
|---6----6----6--6------|
|---3----3----3--3------|
|*--3----3----3--3------|
|*--5----5----5--5------|
|-----------------------|
|-----------------------|


  Q    Q    E  Q.        Q    Q    E  Q.      
--5----5----5--5------|--5----5----5--5------|
--3----3----3--3------|--3----3----3--3------|
--3----3----3--3------|--3----3----3--3------|
--4----4----4--4------|--3----3----3--3------|
----------------------|----------------------|
----------------------|----------------------|


  Q    Q    E  Q.        Q    Q    E  Q.      
----------------------|----------------------|
--8----8----8--8------|--8----8----8--8------|
--7----7----7--7------|--7----7----7--7------|
--8----8----8--8------|--8----8----8--8------|
--7----7----7--7------|--6----6----6--6------|
----------------------|----------------------|


  Q    Q    E  Q.        Q    Q    E  Q.      
--8----8----8--8------|----------------------|
--8----8----8--8------|--7----7----7--7------|
--8----8----8--8------|--7----7----7--7------|
--6----6----6--6------|--7----7----7--7------|
--6----6----6--6------|--5----5----5--5------|
----------------------|----------------------|


  Q    Q    E  Q.        
-----------------------||
--8----8----8--8-------||
--7----7----7--7------*|| 
--8----8----8--8------*||  
--6----6----6--6-------||
-----------------------||


Pre-Chorus

         PM       PM       PM       PM    
   S S S S  S S S S  S S S S  S S S S     
----------------------------------------||
----------------------------------------||
*--------------------------------------*|| x2
*--------------------------------------*||
---8-8-8-8--8-8-8-8--8-8-8-8--8-8-8-8---||
---6-6-6-6--6-6-6-6--6-6-6-6--6-6-6-6---||


  Q    Q    Q    Q     
----------------------|
--7----7----7----7----|
--5----5----5----5----|
--7----7----7----7----|
--5----5----5----5----|
----------------------|


          PM     PM     PM     PM     PM    
    S S S S  S S S  S S S  S S S  S S S     
|-----------------------------------------||
|-----------------------------------------||
|*---------------------------------------*||
|*---------------------------------------*|| x2
|---8-8-8-8--8-8-8--8-8-8--8-8-8--8-8-8---||
|---6-6-6-6--6-6-6--6-6-6--6-6-6--6-6-6---||


  Q    Q    Q    Q           
----------------------|
--6----6----6----6----|
--5----5----5----5----|
--7----7----7----7----|
--5----5----5----5----|
----------------------|




Chorus x4

     Q    Q    Q    Q       
|-------------------------|
|---8----8----10----10----|
|*--8----8----10----10----|
|*--8----8----10----10----|
|---x----x-----x-----x----
|---8----8----10----10----|


   Q     Q     E   E   E  E   
------------------------------||
--10----10----10--10--10--x---||
--10----10----10--10--10--x--*||
---8-----8-----8---8---8--x--*||
--10----10----10--10--10--x---||
------------------------------||



(Intro Part)

    E   Q    E   E   E  E   E   
|------10---------------8--10--|
|------------8--10--11---------|
|*-----------------------------|
|*-----------------------------|
|------------------------------|
|------------------------------|


  Q     E   E  E   E   E  E   
-------11--10--8-------------|
--8---------------11--10--8--|
-----------------------------|
-----------------------------|
-----------------------------|
-----------------------------|


   Q    E   E   E  E   E  E   
--10---------------8--10-----|
--------8--10--11---------8--|
-----------------------------|
-----------------------------|
-----------------------------|
-----------------------------|


   E  E  E  E  E  E  E  E             
--10-----8--------6---------|
------6-----6--4-----4--3---|
---------------------------*|
---------------------------*|
----------------------------|
----------------------------|



Verse 

    Q    Q    E  Q. 
|---6----6----6--6------|
|---3----3----3--3------|
|*--3----3----3--3------|
|*--5----5----5--5------|
|-----------------------|
|-----------------------|


  Q    Q    E  Q.        Q    Q    E  Q.      
--5----5----5--5------|--5----5----5--5------|
--3----3----3--3------|--3----3----3--3------|
--3----3----3--3------|--3----3----3--3------|
--4----4----4--4------|--3----3----3--3------|
----------------------|----------------------|
----------------------|----------------------|


  Q    Q    E  Q.        Q    Q    E  Q.      
----------------------|----------------------|
--8----8----8--8------|--8----8----8--8------|
--7----7----7--7------|--7----7----7--7------|
--8----8----8--8------|--8----8----8--8------|
--7----7----7--7------|--6----6----6--6------|
----------------------|----------------------|


  Q    Q    E  Q.        Q    Q    E  Q.      
--8----8----8--8------|----------------------|
--8----8----8--8------|--7----7----7--7------|
--8----8----8--8------|--7----7----7--7------|
--6----6----6--6------|--7----7----7--7------|
--6----6----6--6------|--5----5----5--5------|
----------------------|----------------------|


  Q    Q    E  Q.        
-----------------------||
--8----8----8--8-------||
--7----7----7--7------*|| 
--8----8----8--8------*||  
--6----6----6--6-------||
-----------------------||




Pre-Chorus

         PM       PM       PM       PM    
   S S S S  S S S S  S S S S  S S S S     
----------------------------------------||
----------------------------------------||
*--------------------------------------*|| x2
*--------------------------------------*||
---8-8-8-8--8-8-8-8--8-8-8-8--8-8-8-8---||
---6-6-6-6--6-6-6-6--6-6-6-6--6-6-6-6---||


  Q    Q    Q    Q     
----------------------|
--7----7----7----7----|
--5----5----5----5----|
--7----7----7----7----|
--5----5----5----5----|
----------------------|


          PM     PM     PM     PM     PM    
    S S S S  S S S  S S S  S S S  S S S     
|-----------------------------------------||
|-----------------------------------------||
|*---------------------------------------*||
|*---------------------------------------*|| x2
|---8-8-8-8--8-8-8--8-8-8--8-8-8--8-8-8---||
|---6-6-6-6--6-6-6--6-6-6--6-6-6--6-6-6---||


  Q    Q    Q    Q           
----------------------|
--6----6----6----6----|
--5----5----5----5----|
--7----7----7----7----|
--5----5----5----5----|
----------------------|




Chorus x4

     Q    Q    Q    Q       
|-------------------------|
|---8----8----10----10----|
|*--8----8----10----10----|
|*--8----8----10----10----|
|---x----x-----x-----x----
|---8----8----10----10----|


   Q     Q     E   E   E  E   
------------------------------||
--10----10----10--10--10--x---||
--10----10----10--10--10--x--*||
---8-----8-----8---8---8--x--*||
--10----10----10--10--10--x---||
------------------------------||


Bridge x4


   Q    Q    E  Q.        Q    E  Q    Q    E  
-----------------------|------------------------||
---8----8----8--8------|--7----7--7----8----7---||
*--7----7----7--7------|--5----5--5----5----5--*||
*--8----8----8--8------|--7----7--7----7----7--*|| x3
---6----6----6--6------|--5----5--5----5----5---||
-----------------------|------------------------||



(In the 4th this is played x2 v)

  E  E  E  E  E  E  E  E  E   E   E   E  E  E  E  E    
-----------------------------------------------------|
-----------------------------------------------------|
--3--3--3--5--5--5--7--7--7--10--10--10--9--9--9--9--|
--1--1--1--3--3--3--5--5--5---8---8---8--7--7--7--7--|
-----------------------------------------------------|
-----------------------------------------------------|


(Then this)


      PM   PM  PM  PM PM  PM  
  E   Q    E   E   E  E   E   
-----10---------------8--10--|
-----------8--10--11---------|
-----------------------------|
-----------------------------|
-----------------------------|
-----------------------------|


  PM    PM  PM PM  PM  PM PM  
  Q     E   E  E   E   E  E   
-------11--10--8-------------|
--8---------------11--10--8--|
-----------------------------|
-----------------------------|
-----------------------------|
-----------------------------|


     PM  PM   PM  PM  PM PM  PM  
     E   Q    E   E   E  E   E   
|---10--10---------------8--10--|
|-------------8--10--11---------|
|*------------------------------|
|*------------------------------|
|-------------------------------|
|-------------------------------|


  PM    PM  PM PM  PM  PM PM    
  Q     E   E  E   E   E  E   6x
-------11--10--8--------------||
--8---------------11--10--8---||
-----------------------------*||
-----------------------------*||
------------------------------||
------------------------------||


   PM  PM   PM  PM  PM PM  PM  
   E   Q    E   E   E  E   E   
--10--10---------------8--10--|
------------8--10--11---------|
------------------------------|
------------------------------|
------------------------------|
------------------------------|


  Q     E   E  E   E   E  E   
-------11--10--8-------------|
--8---------------11--10--8--|
-----------------------------|
-----------------------------|
-----------------------------|
-----------------------------|

Pre-Chorus

         PM       PM       PM       PM    
   S S S S  S S S S  S S S S  S S S S     
----------------------------------------||
----------------------------------------||
*--------------------------------------*|| x2
*--------------------------------------*||
---8-8-8-8--8-8-8-8--8-8-8-8--8-8-8-8---||
---6-6-6-6--6-6-6-6--6-6-6-6--6-6-6-6---||


  Q    Q    Q    Q     
----------------------|
--7----7----7----7----|
--5----5----5----5----|
--7----7----7----7----|
--5----5----5----5----|
----------------------|


          PM     PM     PM     PM     PM    
    S S S S  S S S  S S S  S S S  S S S     
|-----------------------------------------||
|-----------------------------------------||
|*---------------------------------------*||
|*---------------------------------------*|| x2
|---8-8-8-8--8-8-8--8-8-8--8-8-8--8-8-8---||
|---6-6-6-6--6-6-6--6-6-6--6-6-6--6-6-6---||


  Q    Q    Q    Q           
----------------------|
--6----6----6----6----|
--5----5----5----5----|
--7----7----7----7----|
--5----5----5----5----|
----------------------|




Chorus x8

     Q    Q    Q    Q       
|-------------------------|
|---8----8----10----10----|
|*--8----8----10----10----|
|*--8----8----10----10----|
|---x----x-----x-----x----
|---8----8----10----10----|


   Q     Q     E   E   E  E   
------------------------------||
--10----10----10--10--10--x---||
--10----10----10--10--10--x--*||
---8-----8-----8---8---8--x--*||
--10----10----10--10--10--x---||
------------------------------||



Bridge x4


   Q    Q    E  Q.        Q    E  Q    Q    E  
-----------------------|------------------------||
---8----8----8--8------|--7----7--7----8----7---||
*--7----7----7--7------|--5----5--5----5----5--*||
*--8----8----8--8------|--7----7--7----7----7--*|| x3
---6----6----6--6------|--5----5--5----5----5---||
-----------------------|------------------------||



(In the 4th this is played x2 v)

  E  E  E  E  E  E  E  E  E   E   E   E  E  E  E  E    
-----------------------------------------------------|
-----------------------------------------------------|
--3--3--3--5--5--5--7--7--7--10--10--10--9--9--9--9--|
--1--1--1--3--3--3--5--5--5---8---8---8--7--7--7--7--|
-----------------------------------------------------|
-----------------------------------------------------|



   W                  
|-------------------||
|--5----------------||
|--5----------------||
|--5----------------||
|--3----------------||
|-------------------||


http://www.3p3b.co.jp/bands/asp.html



Duration Legend
---------------
W - whole
H - half
Q - quarter
E - 8th
S - 16th
T - 32nd
X - 64th
. - note dotted
|-n-|  - n-tuplets


Tablature Legend
----------------
L - tied note
x - dead note
g - grace note
(n) - ghost note
> - accentuded note
NH - natural harmonic
AH - artificial harmonic
TH - tapped harmonic
SH - semi harmonic
PH - pitch harmonic
h - hammer on
p - pull off
b - bend
br - bendRelease
pb - preBend
pbr - preBendRelease
brb - bendReleaseBend
\n/ - tremolo bar dip
\n - tremolo bar dive
-/n - tremolo bar Release up
/n\ - tremolo bar inverted dip
/n - tremolo bar return
-\n - tremolo bar Release down
S - shift slide
s - legato slide
/ -  slide into from below or out of upwards
\ -  slide into from above or out of downwards
~ - vibrato
W - wide vibrato
tr - trill
TP - tremolo picking
T - tapping
S - slap
P - pop
< - fade in
^ - brush up
v - brush down
Добавлено: 30.06.2015
Вам также может быть интересно:
Другие материалы по этой песне:

Страница создана 30.06.2015
http://primanota.ru/asparagus/jerk-chords.htm
Привет, Гость.
Предлагаем пройти революционный курс по гитаре.
Подарок от PrimaNota.Ru, забирай!