PrimaNota.ru - самый крупный в мире бесплатный архив песенных текстов, аккордов, табулатур и нот


Asp - Tiefenrausch - таба, видео

Регистрация Запомнить меня
Войти через:  Facebook Google Twitter Vk Yandex Mail.ru

Asp - Tiefenrausch - таба, видео

Печатать
Просмотров: 217
ASP - Tiefenrausch


Tuning: Halbton tiefer - [D#,G#,C#,F#,A#,D#]


x = palm mute
/ = Slide


Intro

D#|----------------|----------------|----------------|----------------|
A#|----------------|----------------|----------------|----------------|
F#|----2-----2---2-|----------------|----------------|----------------|
C#|2-2-2-2-2-2-2-2-|----2-----2---2-|----3-----3---3-|----2-----2---2-|
G#|0-0-0-0-0-0-0-0-|2-2-2-2-2-2-2-2-|3-3-3-3-3-3-3-3-|2-2-2-2-2-2-2-2-|
D#|----------------|0-0-0-0-0-0-0-0-|1-1-1-1-1-1-1-1-|0-0-0-0-0-0-0-0-|
   x x   x x   x    x  x  x x   x    x x   x x   x    x x   x x   x

D#|----------------|----------------|----------------|----------------|
A#|----------------|----------------|----------------|----------------|
F#|----2-----2---2-|----------------|----------------|----------------|
C#|2-2-2-2-2-2-2-2-|----2-----2---2-|----3-----3---3-|----2-----2---2-|
G#|0-0-0-0-0-0-0-0-|2-2-2-2-2-2-2-2-|3-3-3-3-3-3-3-3-|2-2-2-2-2-2---2-|
D#|----------------|0-0-0-0-0-0-0-0-|1-1-1-1-1-1-1-1-|0-0-0-0-0-0---0-|
   x x   x x   x    x  x  x x   x    x x   x x   x    x x   x x   



Strophe

D#|------------|-------------|
A#|---5--------|-------6--5--|
F#|---2--------|-------3--2--| x 6
C#|------------|-------------|
G#|------------|-------------|
D#|------------|-------------|



Pre-Chorus

D#|-------0---1--|
A#|-----3--------|
F#|---2----------| x 4
C#|-0------------|
G#|--------------|
D#|--------------|



Refrain

D#|----------------|----------------|----------------|----------------|
A#|----------------|----------------|----------------|----------------|
F#|----2-----2---2-|----------------|----------------|----------------| x 2
C#|2-2-2-2-2-2-2-2-|----2-----2---2-|----3-----3---3-|----2-----2---2-| 
G#|0-0-0-0-0-0-0-0-|2-2-2-2-2-2-2-2-|3-3-3-3-3-3-3-3-|2-2-2-2-2-2-2-2-|
D#|----------------|0-0-0-0-0-0-0-0-|1-1-1-1-1-1-1-1-|0-0-0-0-0-0-0-0-|
   x x   x x   x    x  x  x x   x    x x   x x   x    x x   x x   x

D#|----------------|-----------------|
A#|----------------|-----------------| x 4
F#|----------------|-----------------|
C#|----3-----3---3-|-----2-----2---2-|
G#|3-3-3-3-3-3-3-3-|-2-2-2-2-2-2-2-2-|
D#|1-1-1-1-1-1-1-1-|-0-0-0-0-0-0-0-0-|
   x x   x x   x     x x   x x   x  
 


Dann wird das ganze nochmal wiederholt bis zur 3. Strophe


Solo

D#|------------|----------------|--------------|-------------|----|---------------|
A#|---3-5----5-|-/6----6/10--8--|--------------|-------------|----|---------------|
F#|-2----------|----------------|-10--9--7--5--|-4--2--0--2--|----|-2-2-2-2--0--2-|
C#|------------|----------------|--------------|-------------|----|---------------|
G#|------------|----------------|--------------|-------------|----|---------------|
D#|------------|----------------|--------------|-------------|----|---------------|

D#|------------------|----------------|     D#|------------------|---------------|
A#|--------10-10--13-|-12--10---------|     A#|--------10-10--13-|--12-10-12 /13-|
F#|--0-7-9-----------|---------10--9--| x 3 F#|--0-7-9-----------|---------------|
C#|------------------|----------------|     C#|------------------|---------------|
G#|------------------|----------------|     G#|------------------|---------------|
D#|------------------|----------------|     D#|------------------|---------------|
     x x x                                       x x x

Die Rythmusgitarre spielt unter dem Solo irgendwann noch das hier

D#|---------------------|-----------------|
A#|---------------------|-----------------|
F#|---------------------|-----------------|
C#|---------------------|-----------------|
G#|-7-7-7-7-10-10-10-10-|-3-3-3-3-2-2-2-2-|
D#|-5-5-5-5-8--8--8--8--|-1-1-1-1-0-0-0-0-|
    x x x x x  x  x  x    x x x x x x x x

D#|---------------------|-----------------|
A#|---------------------|-----------------|
F#|---------------------|-----------------|
C#|---------------------|-----------------|
G#|-7-7-7-7-10-10-10-10-|-3-3-3-3-2-2-2-2-|
D#|-5-5-5-5-8--8--8--8--|-1-1-1-1-0-0-0-0-|
    x x x   x  x  x       x x x   x x x 

D#|---------------------|-----------------|
A#|---------------------|-----------------|
F#|---------------------|-----------------|
C#|---------------------|-----------------|
G#|-7-7-7-7-10-10-10-10-|-3-3-3-3-2-2-2-2-|
D#|-5-5-5-5-8--8--8--8--|-1-1-1-1-0-0-0-0-|

Pre-Chorus

Refrain
Добавлено: 18.05.2012
Другие материалы по этой песне:
  • Аккорды и текст

Страница создана 18.05.2012
http://primanota.ru/asp/tiefenrausch-chords.htm
Привет, Гость.
Предлагаем пройти революционный курс по гитаре.
Подарок от PrimaNota.Ru, забирай!