PrimaNota.ru - самый крупный в мире бесплатный архив песенных текстов, аккордов, табулатур и нот


Asobi Seksu - Nefigirly - таба, видео

Регистрация Запомнить меня
Войти через:  Facebook Google Twitter Vk Yandex Mail.ru

Asobi Seksu - Nefigirly - таба, видео

Печатать
Просмотров: 129
Авторы: Yuki Chikudate, James Hanna

I first heard "Nefi+Girly" during the teaser at the end of 
episode one of the third Skins season, and I became enamored 
with both the song and the programme straightaway. 
So here is my attempt at a tab, I certainly have some 
reservations to even call it as such since it does not cover 
the whole song (namely the part at  the end) and probably 
leaves a lot of room for improvement. Any constructive 
criticism is, thus, greatly appreciated.

CHORDS
Eb (x68886)
G# (466544)
Bb (688766)
Cm (335543)


INTRO
e---------------------------------------------------------|
B-------11-11-9\8---9-9-8-8-----8-------------------------|
G---7/8---------------------8-8---8----13-13-12-8-10(x7)--|
D-----------------------------------10--------------------|   x2            
A---------------------------------------------------------|     
E---------------------------------------------------------|


VERSE
Eb
Teach me to learn to lose myself
G#
my finger was pricked by someone else
Eb
pull my blood up through a mixer straw
G#
Spread the words all wrong on the neighbor's lawn and on
Bb
Don't cry for sleeping kittens
Cm
cause they won't die today
Bb
we'll cover them with flowers
Cm
they dream their dreams away

Eb
Disconnect the feeling factory
G#
put your tongue up to my battery
Eb
things are so much smoother when we lie
G#
crush your cigarettes out on an orange sky and try
Bb
lose sleep for sleeping children
Cm
but throw your branch away
Bb
the bees they buzzed so loudly
Cm                      Eb
that I just couldn't stay
                G# Bb
I just couldn't stay


CHORUS
Eb          G#
Awaiting an audience


INTERLUDE (Same as INTRO)
e---------------------------------------------------------|
B-------11-11-9\8---9-9-8-8-----8-------------------------|
G---7/8---------------------8-8---8----13-13-12-8-10(x7)--|
D-----------------------------------10--------------------|   x2            
A---------------------------------------------------------|     
E---------------------------------------------------------|


VERSE
Eb
Trace the feel of everything you steal
G#
tell me which is paper and which is real
Eb
we won't answer even when they call
G#
when we're hiding from shadows that are dancing on the walls
Bb
Don't cry for sleeping kittens
Cm
cause they won't die today
Bb
we'll cover them with flowers
Cm                      Eb
they dream their dreams away
                          G# Bb
they'll dream their dreams away


CHORUS
Eb          G#
Awaiting an audience
Добавлено: 24.02.2012
Другие материалы по этой песне:
  • Аккорды и текст

Страница создана 24.02.2012
http://primanota.ru/asobi-seksu/nefigirly-chords.htm
Привет, Гость.
Предлагаем пройти революционный курс по гитаре.
Подарок от PrimaNota.Ru, забирай!