PrimaNota.ru - самый крупный в мире бесплатный архив песенных текстов, аккордов, табулатур и нот


Asobi Seksu - Asobi Masho - бас-таба, видео

Регистрация Запомнить меня
Войти через:  Facebook Google Twitter Vk Yandex Mail.ru

Asobi Seksu - Asobi Masho - бас-таба, видео

Печатать
Просмотров: 151
-----------------------------------------------------------------------------
			Asobi Masho - Asobi Seksu
-----------------------------------------------------------------------------

Tabbed By : viper565

Tuning: Standard

Ok, a couple things to note before we get started here.

1. There isn't any bass in this song, at least none I can hear.  If you're
trying to emulate the song perfectly then you're in the wrong place.

2. All the open E notes in the intro and interludes you should play in time 
with the bass drum.  I thought that might be a little hard to understand while 
reading the tab.

Intro:
G|--------------------------------------------------------------------------|
D|--------------------------------------------------------------------------|
A|--------------------------------------------------------------------------|
E|0--0-0---0---0-0---0--0-0---0---0-0---------------------------------------| 

Verse 1:
G|--------------------------------------------------------------------------|
D|--------------------------------------------------------------------------|
A|--------------------------------------------------------------------------|
E|0-7-00-7--0-3-000-3--0-7-00-7--0-3-000-3----------------------------------|

Play around with that a bit, same riff as verse 2.

"Asobi Masho?  Asobi Masho?":
G|--------------------------------------------------------------------------|
D|--------------------------------------------------------------------------|
A|--------------------------------------------------------------------------|
E|0--0-0---0--0-0---0--0-0---0--0-0---0--0-0---0--0-0---0--0-0---0--0-0-----| 

Verse 2:
G|--------------------------------------------------------------------------|
D|--------------------------------------------------------------------------|
A|--------------------------------------------------------------------------|
E|0-7-00-7--0-3-000-3--0-7-00-7--0-3-000-3----------------------------------| 

"Nani Ashio?  Nani Ashio?":
G|--------------------------------------------------------------------------|
D|--------------------------------------------------------------------------|
A|--------------------------------------------------------------------------|
E|0--0-0---0--0-0---0--0-0---0--0-0---0--0-0---0--0-0---0--0-0---0--0-0-----| 

Play until end.  Again, this isn't the real bassline.  I don't think they've
ever played this live, but if you do find a vid or a link of a live version
of this, PM me and I'll fix this tab.

=============================================================================
Добавлено: 12.05.2012
Другие материалы по этой песне:
  • Аккорды и текст

Страница создана 12.05.2012
http://primanota.ru/asobi-seksu/asobi-masho-chords.htm
Привет, Гость.
Предлагаем пройти революционный курс по гитаре.
Подарок от PrimaNota.Ru, забирай!