PrimaNota.ru - самый крупный в мире бесплатный архив песенных текстов, аккордов, табулатур и нот


Asleep At The Wheel - Big Balls In Cowtown - таба, видео

Регистрация Запомнить меня
Войти через:  Facebook Google Twitter Vk Yandex Mail.ru

Asleep At The Wheel - Big Balls In Cowtown - таба, видео

Печатать
Просмотров: 140
BIG BALL'S IN COWTOWN

As recorded by Asleep At The Wheel
(From the 1993 Album A TRIBUTE TO THE MUSIC OF BOB WILLS & THE TEXAS PLAYBOYS)


Words and Music by Hoyle Nix
Arranged by Asleep At The Wheel
Transcribed by Slowhand


Gtr I (E A D G B E) - 'Ray Benson - Electric Guitar'
Gtr II (E A D G B E) - 'Jason Roberts - Fiddle'
Gtr III (E A D G B E) - 'Vince Gill - Electric Guitar'


 Intro
  Q=236
  G
 4/4
  Gtr I
   Q  q    Q  q     Q  q   Q  q      Q  q    Q  q     Q  q   Q  q
|--3--3----3--3---|-3--3---3--3---|--3--3----3--3---|-3--3---3--3--|
|--3--3----3--3---|-3--3---3--3---|--3--3----3--3---|-3--3---3--3--|
|--4--4----4--4---|-4--4---4--4---|--4--4----4--4---|-4--4---4--4--|
|--5--5----5--5---|-5--5---5--5---|--5--5----5--5---|-5--5---5--5--|
|--5--5----5--5---|-5--5---5--5---|--5--5----5--5---|-5--5---5--5--|
|--3--3----3--3---|-3--3---3--3---|--3--3----3--3---|-3--3---3--3--|
|
| Gtr II (Fiddle arr. for Gtr.)
|  Q  E E  Q  E E   Q  E E Q  E E    Q  E E  Q  E E   Q  E E Q  Q
|-----------------|---------------|-----------------|--------------|
|-----------------|---------------|-----------------|--------------|
|-/4--4-4-/4--4-4-|-4--4-4-4--4-4-|-/4--4-4-/4--4-4-|-4--4-4-4--4--|
|-/5--5-5-/5--5-5-|-5--5-5-5--5-5-|-/5--5-5-/5--5-5-|-5--5-5-5--5--|
|-----------------|---------------|-----------------|--------------|
|-----------------|---------------|-----------------|--------------|


                                         C       C#°7      G/D     C
     Q   q   Q   q     Q   q   Q   q     Q   q   Q   q     Q   q   Q  q
||---3---3---3---3---|-3---3---3---3---|-----------------|-3---3-----------|
||o--3---3---3---3---|-3---3---3---3---|-5---5---5---5---|-3---3---5--5----|
||---4---4---4---4---|-4---4---4---4---|-5---5---3---3---|-4---4---5--5----|
||---5---5---5---5---|-5---5---5---5---|-5---5---5---5---|-5---5---5--5----|
||o--5---5---5---5---|-5---5---5---5---|-3---3---4---4---|-5---5---3--3----|
||---3---3---3---3---|-3---3---3---3---|-----------------|-----------------|
|
|   +Q   E E E E E E   E E E E E E E E   E E E E E E E E   E E E E Q  E E
||-------------------|-------0---------|---------0-2-3-5-|-3-0--------0-2--|
||o------0-0-0---0---|-0-1-3---3-0-----|-1-0-1-3---------|-----3-1-3-------|
||--(4)--------2---2-|-------------2-0-|-----------------|-----------------|
||--(5)--------------|-----------------|-----------------|-----------------|
||o------------------|-----------------|-----------------|-----------------|
||-------------------|-----------------|-----------------|-----------------|


                                                        1.
  G/B     Am7       G       G/B      D7
  Q   q   Q   q     Q   q   Q  q      Q    q   Q   q     Q   q   Q  q
|---------5---5---|-3---3----------|-------------------|-----------------||
|---------5---5---|-3---3----------|--3----3---3---3---|-3---3---3--3---o||
|-7---7---5---5---|-4---4---7--7---|--5----5---5---5---|-5---5---5--5----||
|-5---5---5---5---|-5---5---5--5---|--4----4---4---4---|-4---4---4--4----||
|-5---5-----------|-5---5---5--5---|--5----5---5---5---|-5---5---5--5---o||
|-7---7---5---5---|-3---3---7--7---|-------------------|-----------------||
|
| E E E E E E E E   E E E E Q  E E   +E  E E E E E E E   E E E E Q  E E
|-3-2-3-5-3-0---3-|-0--------------|-------------------|-----------------||
|-------------3---|---3-0----------|-------0-3-0-----0-|----------------o||
|-----------------|-------2-0--2s4-|-(4)-2-------2-0---|-2-0-----0--3s4--||
|-----------------|----------------|-------------------|-----2-4----4s5--||
|-----------------|----------------|-------------------|----------------o||
|-----------------|----------------|-------------------|-----------------||


  2.
  D7        G                                C
 2/4       4/4
  Q   q     Q    q  Q  q     Q   q  Q  q     Q  q   Q  q     Q  q  Q  q
|---------|-3----3--3--3---|-3---3--3--3--||---------------|-------------||
|-3---3---|-3----3--3--3---|-3---3--3--3--||-5--5---5--5---|-5--5--5--5--||
|-5---5---|-4----4--4--4---|-4---4--4--4--||-5--5---5--5---|-5--5--5--5--||
|-4---4---|-5----5--5--5---|-5---5--5--5--||-5--5---5--5---|-5--5--5--5--||
|-5---5---|-5----5--5--5---|-5---5--5--5--||-3--3---3--3---|-3--3--3--3--||
|---------|-3----3--3--3---|-3---3--3--3--||---------------|-------------||
|
| E E E E   E Q.    Q  E E   H.        Q     Q  E E Q  E E   Q  Q  Q  Q
|---------|----------------|--------------||---------------|-------------||
|---------|---------0--0-3-|-0---------0h=||=1--1-1-1--1-1-|-1-----------||
|-2-0---0-|-3s4-----0--0-4-|-0------------||---------------|----3--2--0--||
|-----2---|-4s5------------|-----------0h=||=2-------------|-------------||
|---------|----------------|--------------||---------------|-------------||
|---------|----------------|--------------||---------------|-------------||


   1st - 5th Verses
    $
    $$
    F                           Bb    B°7     F/C   F/A
    Q  q  Q  q    Q  q  Q  q    Q  q  Q  q    Q  q  Q  q
||--1--1--1--1--|-1--1--1--1--|-------------|-1--1---------|
||o-1--1--1--1--|-1--1--1--1--|-3--3--3--3--|-1--1---------|
||--2--2--2--2--|-2--2--2--2--|-3--3--1--1--|-2--2--5--5---|
||--3--3--3--3--|-3--3--3--3--|-3--3--3--3--|-3--3--3--3---|
||o-3--3--3--3--|-3--3--3--3--|-1--1--2--2--|-3--3--3--3---|
||--1--1--1--1--|-1--1--1--1--|-------------|-------5--5---|


  F                           C7            F
  Q  q  Q  q    Q  q  Q  q    Q  q  Q  q    Q  q  Q  q
|-1--1--1--1--|-1--1--1--1--|-------------|-1--1--1--1--||
|-1--1--1--1--|-1--1--1--1--|-1--1--1--1--|-1--1--1--1--||
|-2--2--2--2--|-2--2--2--2--|-3--3--3--3--|-2--2--2--2--||
|-3--3--3--3--|-3--3--3--3--|-2--2--2--2--|-3--3--3--3--||
|-3--3--3--3--|-3--3--3--3--|-3--3--3--3--|-3--3--3--3--||
|-1--1--1--1--|-1--1--1--1--|-------------|-1--1--1--1--||


 Chorus
  F                           Bb    B°7     F/C   F/A
  Q  q  Q  q    Q  q  Q  q    Q  q  Q  q    Q  q  Q  q
|-1--1--1--1--|-1--1--1--1--|-------------|-1--1--------|
|-1--1--1--1--|-1--1--1--1--|-3--3--3--3--|-1--1--------|
|-2--2--2--2--|-2--2--2--2--|-3--3--1--1--|-2--2--5--5--|
|-3--3--3--3--|-3--3--3--3--|-3--3--3--3--|-3--3--3--3--|
|-3--3--3--3--|-3--3--3--3--|-1--1--2--2--|-3--3--3--3--|
|-1--1--1--1--|-1--1--1--1--|-------------|-------5--5--|


                                           1.
 To Dbl. Coda                     To Coda
  F                           C7            F
  Q  q  Q  q    Q  q  Q  q    Q  q  Q  q    Q  q  Q  q
|-1--1--1--1--|-1--1--1--1--|-------------|-1--1--1--1--|
|-1--1--1--1--|-1--1--1--1--|-1--1--1--1--|-1--1--1--1--|
|-2--2--2--2--|-2--2--2--2--|-3--3--3--3--|-2--2--2--2--|
|-3--3--3--3--|-3--3--3--3--|-2--2--2--2--|-3--3--3--3--|
|-3--3--3--3--|-3--3--3--3--|-3--3--3--3--|-3--3--3--3--|
|-1--1--1--1--|-1--1--1--1--|-------------|-1--1--1--1--|


  Q  q  Q  q    Q  q  Q  q    Q  q  Q  q    Q  q  Q  q    Q  q  Q  q
|-1--1--1--1--|-1--1--1--1--|-1--1--1--1--|-1--1--1--1--|-1--1--1--1---||
|-1--1--1--1--|-1--1--1--1--|-1--1--1--1--|-1--1--1--1--|-1--1--1--1--o||
|-2--2--2--2--|-2--2--2--2--|-2--2--2--2--|-2--2--2--2--|-2--2--2--2---||
|-3--3--3--3--|-3--3--3--3--|-3--3--3--3--|-3--3--3--3--|-3--3--3--3---||
|-3--3--3--3--|-3--3--3--3--|-3--3--3--3--|-3--3--3--3--|-3--3--3--3--o||
|-1--1--1--1--|-1--1--1--1--|-1--1--1--1--|-1--1--1--1--|-1--1--1--1---||


  2.
               D.S. al Coda &
                               F
  Q  q  Q  q    Q  q  Q  q     Q  q  Q  q    Q  q  Q  q
|-1--1--1--1--|-1--1--1--1--||-1--1--1--1--|-1--1--1--1--||
|-1--1--1--1--|-1--1--1--1--||-1--1--1--1--|-1--1--1--1--||
|-2--2--2--2--|-2--2--2--2--||-2--2--2--2--|-2--2--2--2--||
|-3--3--3--3--|-3--3--3--3--||-3--3--3--3--|-3--3--3--3--||
|-3--3--3--3--|-3--3--3--3--||-3--3--3--3--|-3--3--3--3--||
|-1--1--1--1--|-1--1--1--1--||-1--1--1--1--|-1--1--1--1--||


 Guitar Solo
  F                                       Bb      B°7       F/C      F/A
  Q   q    Q      q     Q  q  Q     q     Q   q   Q   q     Q    q   Q  q
|-1---1----1------1--|--1--1--1-----1---|-----------------|-1----1---------|
|-1---1----1------1--|--1--1--1-----1---|-3---3---3---3---|-1----1---------|
|-2---2----2------2--|--2--2--2-----2---|-3---3---1---1---|-2----2---5--5--|
|-3---3----3------3--|--3--3--3-----3---|-3---3---3---3---|-3----3---3--3--|
|-3---3----3------3--|--3--3--3-----3---|-1---1---2---2---|-3----3---3--3--|
|-1---1----1------1--|--1--1--1-----1---|-----------------|----------5--5--|
|
| Gtr III
| Q   Q   +E   E  Q     Q  Q  Q.      E   E E E E E Q   E   Q    H      Q
|----13--(13)--------|------------------|-----------------|----------------|
|-------------13-15--|-13-----8b10----6-|-8-6-8-6-9-8-----|-6--------------|
|--------------------|------------------|---------------7-|----/10\--------|
|--------------------|------------------|-----------------|----------------|
|--------------------|------------------|-----------------|----------------|
|--------------------|------------------|-----------------|----------------|


  F                          F/A          C7
  Q    q   Q  q    Q    q    Q      q     Q  q  Q  q      Q   q  Q    q
|-1----1---1--1--|-1----1---------------|--------------|-----------------|
|-1----1---1--1--|-1----1---------------|-1--1--1--1---|--1---1--1----1--|
|-2----2---2--2--|-2----2----5------5---|-3--3--3--3---|--3---3--3----3--|
|-3----3---3--3--|-3----3----3------3---|-2--2--2--2---|--2---2--2----2--|
|-3----3---3--3--|-3----3----3------3---|-3--3--3--3---|--3---3--3----3--|
|-1----1---1--1--|-1----1----5------5---|--------------|-----------------|
|
| E E  Q   Q  Q    E  Q    E E E   +Q     Q  Q  Q  E E   +Q   Q  Q    Q
|----------------|--------10-8----------|--------------|-----------------|
|-------------8--|-8s10--------8b9-(8)--|-8--6--6----6-|-(6)-------------|
|---------10-----|----------------------|----------7---|------------/14--|
|---8s10---------|----------------------|--------------|-----------------|
|----------------|----------------------|--------------|-----------------|
|----------------|----------------------|--------------|-----------------|


  F                               F/A
   Q     q   Q     q     Q     q   Q   q
|--1-----1---1-----1--|--1-----1----------|
|--1-----1---1-----1--|--1-----1----------|
|--2-----2---2-----2--|--2-----2---5---5--|
|--3-----3---3-----3--|--3-----3---3---3--|
|--3-----3---3-----3--|--3-----3---3---3--|
|--1-----1---1-----1--|--1-----1---5---5--|
|
|  Q     Q   Q     Q     Q     Q   q   q
|-17\-------15\-------|-13\-------15--13--|
|---------------------|-------------------|
|------/14-------/14--|------/14----------|
|---------------------|-------------------|
|---------------------|-------------------|
|---------------------|-------------------|


  Bb                  F/C       F/A
   Q   q   Q   q        Q    q   Q     q
|-------------------|---1----1--------------|
|--3---3---3---3----|---1----1--------------|
|--3---3---1---1----|---2----2---5-----5----|
|--3---3---3---3----|---3----3---3-----3----|
|--1---1---2---2----|---3----3---3-----3----|
|-------------------|------------5-----5----|
|
|  q   q   q   E  E    +Q    Q   E  E  E  E
|-16--13--13-----13-|-(13)\-----------------|
|-------------15----|-----------------10-13-|
|-------------------|-----------10-12-------|
|-------------------|-----------------------|
|-------------------|-----------------------|
|-------------------|-----------------------|


  F                  C7
   Q     q   Q  q     Q   q   Q   q
|--1-----1---1--1--|-----------------|
|--1-----1---1--1--|--1---1---1---1--|
|--2-----2---2--2--|--3---3---3---3--|
|--3-----3---3--3--|--2---2---2---2--|
|--3-----3---3--3--|--3---3---3---3--|
|--1-----1---1--1--|-----------------|
|
|  E  E  Q   q  Q     E E E E E E Q
|-10-10-----10-----|-10-8------------|
|-------13---------|------9-8s6------|
|------------------|------------7s5--|
|------------------|-----------------|
|------------------|-----------------|
|------------------|-----------------|


                           D.S.S. al Dbl. Coda
  F
  Q  q  Q  q      Q    q   Q  q    Q  q  Q  q
|-1--1--1--1---|--1----1---1--1--|-1--1--1--1--||
|-1--1--1--1---|--1----1---1--1--|-1--1--1--1--||
|-2--2--2--2---|--2----2---2--2--|-2--2--2--2--||
|-3--3--3--3---|--3----3---3--3--|-3--3--3--3--||
|-3--3--3--3---|--3----3---3--3--|-3--3--3--3--||
|-1--1--1--1---|--1----1---1--1--|-1--1--1--1--||
|
| Q  Q  Q  E E   +E  E H.          W
|--------------|-----------------|-------------||
|-1--3-----3---|-----3-----------|-------------||
|-------4----3-|-(3)---2---------|-------------||
|--------------|-----------------|-------------||
|--------------|-----------------|-------------||
|--------------|-----------------|-------------||


 Outro
                           H.=H
  &&
  F                             C7        F
                                          TP         TP
  H    H      +W           H    H      Q  H.        +H.      E E
|-1----1----|-(1)--------|-----------|----1-------|-(1)--------1-*|
|-1----1----|-(1)--------|------1----|----1-------|-(1)--------1-*|
|-2----2----|-(2)--------|------3----|----2-------|-(2)--------2-*|
|-3----3----|-(3)--------|------2----|----3-------|-(3)--------3-*|
|-3----3----|-(3)--------|------3----|----3-------|-(3)--------3-*|
|-1----1----|-(1)--------|-----------|----1-------|-(1)--------1-*|


Duration Legend
---------------
W - whole; H - half; Q - quarter; E - 8th; S - 16th; T - 32nd; X - 64th; a - acciaccatura
+ - note tied to previous; . - note dotted; .. - note double dotted
Uncapitalized letters represent notes that are staccato (1/2 duration)
Irregular groupings are notated above the duration line
Duration letters will always appear directly above the note/fret number it represents the
duration for.  Duration letters with no fret number below them represent rests.  Multi-
bar rests are notated in the form Wxn, where n is the number of bars to rest for.  Low
melody durations appear below the staff

Tablature Legend
----------------
 h   - hammer-on
 p   - pull-off
 b   - bend
 pb  - pre-bend
 r   - bend release (if no number after the r, then release immediately)
 /\  - slide into or out of (from/to "nowhere")
 s   - legato slide
 S   - shift slide
  - natural harmonic
[n]  - artificial harmonic
n(n) - tapped harmonic
 ~   - vibrato
 tr  - trill
 T   - tap
 TP  - trem. picking
 PM  - palm muting
\n/  - tremolo bar dip; n = amount to dip
 \n  - tremolo bar down
 n/  - tremolo bar up
/n\  - tremolo bar inverted dip
 =   - hold bend; also acts as connecting device for hammers/pulls
 <>  - volume swell (louder/softer)
 x   - on rhythm slash represents muted slash
 o   - on rhythm slash represents single note slash

Misc Legend
-----------
 |  - bar
||  - double bar
||o - repeat start
o|| - repeat end
*|  - double bar (ending)
 :  - bar (freetime)
 $  - Segno
 &  - Coda
Tempo markers -  = BPM(8/16=s8/s16), where s8 = swing 8ths, s16 = swing 16ths
Добавлено: 22.07.2015
Вам также может быть интересно:
Другие материалы по этой песне:

Страница создана 04.04.2014
http://primanota.ru/asleep-at-the-wheel/big-balls-in-cowtown-chords.htm
Привет, Гость.
Предлагаем пройти революционный курс по гитаре.
Подарок от PrimaNota.Ru, забирай!