PrimaNota.ru - самый крупный в мире бесплатный архив песенных текстов, аккордов, табулатур и нот


Asking Alexandria - Undivided - таба, видео

Регистрация Запомнить меня
Войти через:  Facebook Google Twitter Vk Yandex Mail.ru

Asking Alexandria - Undivided - таба, видео

Печатать
Просмотров: 218
Уроки эстрадного вокала в Санкт-Петербурге
((This is my first tab, so I 
Am sorry, if any of you dislike it))
Undivided - Asking Alexandria

"I told you once..."
|---------------------------------|
|---------------------------------|
|---------------------------------|
|---------------------------------|
|--0--0-0--0-0-5--3--5--0---0-0--1|
|--0--0-0--0-0-5--3--5--0---0-0--1|(The 1, is played 8 times.)

|---------------------------------|
|---------------------------------|
|---------------------------------|
|---------------------------------|
|--0--0-0--0-0--5--3--5--0-0-0-0-6|
|--0--0-0--0-0--5--3--5--0-0-0-0-6|
(The 6, is played 6 times.)

-Repeat both-

|---------------------------------|
|---------------------------------|
|---------------------------------|
|---------------------------------|
|---------------------------------|
|--0-0-0--0--0-5-3-5----0-0-0--0-1|
(The 1, is played 7 times.)

|---------------------------------|
|---------------------------------|
|---------------------------------|
|---------------------------------|
|---------------------------------|
|--0-0-0--0-0-5-3-5--6-6-6-6-6-6--|


-Repeat except, the second one 
Changes slightly:-

|---------------------------------|
|---------------------------------|
|---------------------------------|
|---------------------------------|
|---------------------------------|
|--0-0-0--0-0-5-3-5--6-6-6-6-6-6--|

|---------------------------------|
|---------------------------------|
|---------------------------------|
|---------------------------------|
|---------------------------------|
|--0--0--x-8(b)10-----------------|

-Chorus-

"So you can take, take, take..."
|---------------------------------|
|---------------------------------|
|---------------------------------|
|---------------------------------|
|--0-(x8)---3-(x8)---5-(x8)---1(x8|
|--0--------3--------5--------1---|

|---------------------------------|
|---------------------------------|
|---------------------------------|
|---------------------------------|
|--0-(x8)---3-(x8)---6(x8)--------|
|--0--------3--------6------------|

|---------------------------------|
|---------------------------------|
|---------------------------------|
|---------------------------------|
|--0--1--3-1-3--------------------|
|--0--1--3-1-3--------------------|

-Second Verse-

|---------------------------------|
|---------------------------------|
|---------------------------------|
|---------------------------------|
|---------------------------------|
|-0-0-0-0--0--0---0-0-0-0-0-0-0-0-|
(Played 3 times.)

|---------------------------------|
|---------------------------------|
|---------------------------------|
|---------------------------------|
|---------------------------------|
|-0-0-0-0--0--0---8--7--5--7------|

-Bridge-

|---------------------------------|
|---------------------------------|
|---------------------------------|
|---------------------------------|
|-0----8---5---7-----3------------|
|-0----8---5---7-----3------------|

|---------------------------------|
|---------------------------------|
|---------------------------------|
|---------------------------------|
|---------------------------------|
|-0-0--0-0-0--0-0-0-0-0-0---0-0--0|

|---------------------------------|
|---------------------------------|
|---------------------------------|
|---------------------------------|
|---------------------------------|
|-0-0-----------------------------|

|---------------------------------|
|---------------------------------|
|---------------------------------|
|---------------------------------|
|---------------------------------|
|-0-0--0-0-0---0-0--0-0-0---0-----|
(The last 0, is played 7 times.)

|---------------------------------|
|---------------------------------|
|---------------------------------|
|---------------------------------|
|--------------8--5--7------------|
|-0-0---0-0-0--8--5--7------------|

-Repeat-

-Ending-


|---------------------------------|
|---------------------------------|
|---------------------------------|
|---------------------------------|
|---------------------------------|
|-0-0-0-0--0-0---(x3)-------------|

|---------------------------------|
|---------------------------------|
|---------------------------------|
|---------------------------------|
|---------------------------------|
|--6--6--6--5-/-------------------|
|--6--6--6--5-/-------------------|

|---------------------------------|
|---------------------------------|
|---------------------------------|
|---------------------------------|
|---------------------------------|
|-0-0-0-0--0-0---(x3)-------------|

|---------------------------------|
|---------------------------------|
|---------------------------------|
|---------------------------------|
|----------------5--3--5--6-------|
|-0-0-0-0--0-0---5--3--5--6-------|
Добавлено: 26.05.2016
Другие материалы по этой песне:
  • Аккорды и текст

Страница создана 26.05.2016
http://primanota.ru/asking-alexandria/undivided-chords.htm
Привет, Гость.
Предлагаем пройти революционный курс по гитаре.
Подарок от PrimaNota.Ru, забирай!