PrimaNota.ru - самый крупный в мире бесплатный архив песенных текстов, аккордов, табулатур и нот


Asking Alexandria - Right Now Na Na Na - таба, видео

Регистрация Запомнить меня
Войти через:  Facebook Google Twitter Vk Yandex Mail.ru

Asking Alexandria - Right Now Na Na Na - таба, видео

Печатать
Просмотров: 588
Авторы: Aliaune Thiam, Giorgio Tuinfort

this is an amazing beautiful song cover it made me have
so many eargasims yo . lol\

enjoy!
please rate and comment.




c#|-------------------------------------|
g#|-------------------------------------|
 e|-------------------------------------|
 b|-------------------------------------|
f#|--0-0-0-0-0-0-0-0-0-0-000000000000---|
 b|--0-0-0-0-0-0-0-0-0-0-000000000000---|
     . . . . . . . . . . ............


c#|------------------------------------------------|
g#|------------------------------------------------|
 e|------------------------------------------------|
 b|------------------------------------------------| x2 the second time let 
f#|--000-0--0-0-000--0--0-000-0--0-0-000--0-0-000--|    ring.
 b|--000-0--0-0-000--0--0-000-0--0-0-000--0-0-000--|
     ... .  . . ...  .  . ... .  . . ...  . . ...

  Guitar 1
c#|-------------------------------------|
g#|--14-15-14---------------------------|
 e|----------14-16-16-14-14-------------|
 b|-------------------------12~---------|
f#|-------------------------------------|
 b|-------------------------------------|


c#|-------------------------------------|
g#|--14-15-14---------------------------|
 e|----------14-16-16-14-14--18b--------|
 b|-------------------------------------|
f#|-------------------------------------|
 b|-------------------------------------|


c#|--------------------------------------------------------|
g#|--14-15-14----------------------------------------------|
 e|----------14-16-16-14-14--------------------------------|
 b|-------------------------12~-12-14-16~----14~--12~------|
f#|--------------------------------------------------------|
 b|--------------------------------------------------------|


Guitar 2
c#|--------------------------------------|
g#|--------------------------------------|
 e|--------------------------------------|
 b|--9-------7-------5-------9------7----|
f#|--9-x14---7-x14---5-x14---9-x8---7-x8-|
 b|--9-------7-------5-------9------7----|


  Breakdown. :D
c#|---------------------------------------------------|
g#|---------------------------------------------------|
 e|---------------------------------------------------|
 b|---------------------------------------------------| x2 
f#|--00000000-------000000----------0000000-----------|
 b|--00000000-3-0-1-000000-3-0-1~---0000000-0-0-0-0-0-|
     ........   .   ......   .      .......   .   .


  Back to the intro.
c#|------------------------------------------------|
g#|------------------------------------------------|
 e|------------------------------------------------|
 b|------------------------------------------------| x2 the second time let 
f#|--000-0--0-0-000--0--0-000-0--0-0-000--0-0-000--|    ring.
 b|--000-0--0-0-000--0--0-000-0--0-0-000--0-0-000--|
     ... .  . . ...  .  . ... .  . . ...  . . ...





  Guitar 1
c#|-------------------------------------|
g#|--14-15-14---------------------------|
 e|----------14-16-16-14-14-------------|
 b|-------------------------12~---------|
f#|-------------------------------------|
 b|-------------------------------------|


c#|-------------------------------------|
g#|--14-15-14---------------------------|
 e|----------14-16-16-14-14--16b--------|
 b|-------------------------------------|
f#|-------------------------------------|
 b|-------------------------------------|


c#|--------------------------------------------------------|
g#|--14-15-14----------------------------------------------|
 e|----------14-16-16-14-14--------------------------------|
 b|-------------------------12~-12-14-16~----14~--12~------|
f#|--------------------------------------------------------|
 b|--------------------------------------------------------|


Guitar 2
c#|--------------------------------------|
g#|--------------------------------------|
 e|--------------------------------------|
 b|--9-------7-------5-------9------7----|
f#|--9-x14---7-x14---5-x14---9-x8---7-x8-|
 b|--9-------7-------5-------9------7----|



  sweetie part :")
c#|-------------------------------------------------------|
g#|-------------------------------------------------------|
 e|-------------------------------------------------------|
 b|----------------------------------------------4--------|
f#|------5-4-5-7-5--4h5-4h5-----5-4-5-7-5--4h5h7---5------|
 b|--0-0--0-0-0-0-----------0-0--0-0-0-0------------------|
     . .  . . . .           . .  . . . .

  Guitar 1
c#|----------------------------|
g#|----------------------------|
 e|----------------------------|
 b|----------------------------|x2
f#|------5-4--5p4-5h7-5h7------|
 b|--0-0--0-0------------------|
     . .  . .

  Guitar 2
c#|----------------------------|
g#|----------------------------|
 e|-----------7-----5----------|
 b|-----------x-x7--x-x6-------|x2
f#|------7-6--5-----3----------|
 b|--0-0--0-0------------------|
     . .  . .



c#|-------------------------------------------------------|
g#|-------------------------------------------------------|
 e|-------------------------------------------------------|
 b|----------------------------------------------4--------|
f#|------5-4-5-7-5--4h5-4h5-----5-4-5-7-5--4h5h7---5------|
 b|--0-0--0-0-0-0-----------0-0--0-0-0-0------------------|
     . .  . . . .           . .  . . . .



 Guitar 1
c#|----------------------------|
g#|----------------------------|
 e|----------------------------|
 b|----------------------------|x2
f#|------5-4--5p4-5h7-5h7------|
 b|--0-0--0-0------------------|
     . .  . .


  Guitar 2
c#|----------------------------|
g#|----------------------------|
 e|-----------7-----5----------|
 b|-----------x-x7--x-x6-------|x2
f#|------7-6--5-----3----------|
 b|--0-0--0-0------------------|
     . .  . .




  Back to the intro again.
c#|-------------------------------------|
g#|-------------------------------------|
 e|-------------------------------------|
 b|-------------------------------------| x2 the second time let them
f#|--000-0--0-0-000-000-0-000--0-0-000--|    ring.
 b|--000-0--0-0-000-000-0-000--0-0-000--|
     ... .  . . ... ... . ...  . . ...




 Guitar 1
c#|-------------------------------------|
g#|--14-15-14---------------------------|
 e|----------14-16-16-14-14-------------|
 b|-------------------------12~---------|
f#|-------------------------------------|
 b|-------------------------------------|


c#|-------------------------------------|
g#|--14-15-14---------------------------|
 e|----------14-16-16-14-14--16b--------|
 b|-------------------------------------|
f#|-------------------------------------|
 b|-------------------------------------|


c#|--------------------------------------------------------|
g#|--14-15-14----------------------------------------------|
 e|----------14-16-16-14-14--------------------------------|
 b|-------------------------12~-12-14-16~----14~--12~------|
f#|--------------------------------------------------------|
 b|--------------------------------------------------------|


Guitar 2
c#|--------------------------------------|
g#|--------------------------------------|
 e|--------------------------------------|
 b|--9-------7-------5-------9------7----|
f#|--9-x14---7-x14---5-x14---9-x8---7-x8-|
 b|--9-------7-------5-------9------7----|


   this part is pretty fast
c#|------------------------------------------------|
g#|------------------------------------------------|
 e|------------------------------------------------|
 b|------------------------------------------------|
f#|--0-0-0-0-0-0-0-0-0-0-000000000000--000-000-000-|
 b|--0-0-0-0-0-0-0-0-0-0-000000000000--000-000-000-|
     . . . . . . . . . . ............  ... ... ...


c#|----------------------------|
g#|----------------------------|
 e|----------------------------|
 b|----------------------------|x2
f#|--000000000000--000-000-000-|
 b|--000000000000--000-000-000-|
     ............  ... ... ...



  Back to the intro again.
c#|-------------------------------------|
g#|-------------------------------------|
 e|-------------------------------------|
 b|-------------------------------------| x2 the second time let them
f#|--000-0--0-0-000-000-0-000--0-0-000--|    ring.
 b|--000-0--0-0-000-000-0-000--0-0-000--|
     ... .  . . ... ... . ...  . . ...





 Guitar 1(this is the last chorus it repeats twice.
c#|-------------------------------------|
g#|--14-15-14---------------------------|
 e|----------14-16-16-14-14-------------|
 b|-------------------------12~---------|
f#|-------------------------------------|
 b|-------------------------------------|


c#|-------------------------------------|
g#|--14-15-14---------------------------|
 e|----------14-16-16-14-14--16b--------|
 b|-------------------------------------|
f#|-------------------------------------|
 b|-------------------------------------|


c#|--------------------------------------------------------|
g#|--14-15-14----------------------------------------------|
 e|----------14-16-16-14-14--------------------------------|
 b|-------------------------12~-12-14-16~----14~--12~------|
f#|--------------------------------------------------------|
 b|--------------------------------------------------------|


Guitar 2
c#|--------------------------------------|
g#|--------------------------------------|
 e|--------------------------------------|
 b|--9-------7-------5-------9------7----|
f#|--9-x14---7-x14---5-x14---9-x8---7-x8-|
 b|--9-------7-------5-------9------7----|



  Guitar 3
c#|-------------------------|
g#|-----/20~-19~-17-15-13~--|
 e|--19~--------------------|
 b|-------------------------|
f#|-------------------------|
 b|-------------------------|

 please rate and comment!
Добавлено: 22.04.2012
Другие материалы по этой песне:

Страница создана 23.03.2012
http://primanota.ru/asking-alexandria/right-now-na-na-na-chords.htm
Привет, Гость.
Предлагаем пройти революционный курс по гитаре.
Подарок от PrimaNota.Ru, забирай!