PrimaNota.ru - самый крупный в мире бесплатный архив песенных текстов, аккордов, табулатур и нот


Asking Alexandria - Dont Pray For Me - таба, бас-таба, видео

Регистрация Запомнить меня
Войти через:  Facebook Google Twitter Vk Yandex Mail.ru

Asking Alexandria - Dont Pray For Me - таба, бас-таба, видео

Печатать
Просмотров: 671
ASKING ALEXANDRIA
DON'T PRAY FOR ME
DROP B
Make sure you read the things i write, they help haha
For instance are you reading this now? O.o


LONG INTRODUCTION OF OOHING, DRONES, VIOLINS, PIANO ETC. 0:00 - 1:33

Start at 1:33 (Main riff) below
C#|---------|---------------------------------------|
G#|---------|---------------------------------------| Gtr1 x 8
E |-WITH----|---------------------------------------|
B |-DRUMS---|---------------------------------------| Gtr2 x 4 (last 4 times)
F#|-000-000-|---------------------------------------|
B-|-000-000-|-2bp0-0-0-6bp0-0-0-2bp0-0-0-3bp0-5bp0--|
    *** ***        * *      * *      * *      



Main riff again 1:54
Gtr1
C#|---------------------------------------|     |-------------------|
G#|---------------------------------------|     |-------------------|
E |---------------------------------------|     |-------------------|
B |---------------------------------------| x3  |-------------------|
F#|---------------------------------------|     |-------------------|
B-|-2bp0-0-0-6bp0-0-0-2bp0-0-0-3bp0-5bp0--|     |-88888888-33333333-|
Gtr2     * *      * *      * *
C#|---------------------------------------|     |-------------------|
G#|---------------------------------------|     |-------------------|
E |---------------------------------------|     |-------------------|
B |---------------------------------------| x3  |-------------------|
F#|---------------------------------------|     |-----------TENS(x8)|
B-|-2bp0-0-0-6bp0-0-0-2bp0-0-0-3bp0-5bp0--|     |-88888888-10101010-|
         * *      * *      * * 



2:04 "GO" *headbang part*
Gtr1 (8 strums of each note)
C#|-----------------------------------------|
G#|-----------------------------------------|
E |-----------------------------------------|
B |-0tr--3tr--8tr--3tr--0tr--3tr--8tr--10tr-|
F#|-----------------------------------------|
B-|-----------------------------------------|
Gtr2
C#|-----------------------------------------|     |-------------------|
G#|-----------------------------------------|     |-------------------|
E |-----------------------------------------|     |-------------------|
B |-----------------------------------------| x3  |-------------------|
F#|-----------------------------------------|     |-----------TENS(x8)|
B-|-2bp0-0-0-6bp0-0-0-2bp0-0-0-3bp0-5bp0----|     |-88888888-10101010-|
         * *      * *      * * 



Single note part - Pre Verse 2:14
Gtr1 (8 strums of each again)
C#|----------------------|-------------10tr--8tr-|
G#|-10tr--11tr-----------|-10tr--11tr------------|
E |-------------8tr--7tr-|-----------------------|
B |----------------------|-----------------------|
F#|----------------------|-----------------------|
B-|----------------------|-----------------------|
Gtr2
C#|----------------------|-------------10tr--8tr-|
G#|----------------------|-10tr--11tr------------|
E |----------------------|-----------------------|
B |-0~~~~~---------------|-----------------------|
F#|-0~~~~~---------------|-----------------------|
B-|-0~~~~~---------------|-----------------------|



Verse 2:23 "You're Fucking Craz-ay!"
Gtr1                                              2nd repeat, the 12's are 6's
C#|-------------------------------------------------------------------------------|
G#|-------------------------------------------------------------------------------|
E |-------------------------------------------------------------------------------|
B |-------------------------------------------------------------------------------| x2
F#|-0~----------0-0----------------------0~----------0-0--------------------------|
B-|-0~-0h5p0-0~-0-00~---001p0--00008888--0~-0h5p0-0~-0-00~---001p0--000012121212--|
Gtr2            * **    **                           * **    **     ****
C#|----------------------|-------------10tr--8tr-|
G#|-10tr--11tr-----------|-10tr--11tr------------|
E |-------------8tr--7tr-|-----------------------|
B |----------------------|-----------------------| x2
F#|----------------------|-----------------------|
B-|----------------------|-----------------------|




Chorus 2:42 "I don't want you to cry"
Gtr1 & Gtr2                              >>>2nd repeat, the 10's are 3's<<<<
C#|------------------------------------------------------------------------------|
G#|------------------------------------------------------------------------------|
E |------------------------------------------------------------------------------|
B |-6-6-6-6-6-6-6-6-8-8-8-8-8-8-8-8-10-10-10-10-10-10-10-10-10-10-10-10-5-5-5-5--| x2
F#|-6-6-6-6-6-6-6-6-8-8-8-8-8-8-8-8-10-10-10-10-10-10-10-10-10-10-10-10-5-5-5-5--|
B-|-6-6-6-6-6-6-6-6-8-8-8-8-8-8-8-8-10-10-10-10-10-10-10-10-10-10-10-10-5-5-5-5--|





Pre Verse 3:01 (Ben talking at Seattle show about making Danny going to rehab)
Gtr1 (really pluck them 0's out)
C#|-------------------------------------------------------------------------------------|
G#|-------------------------------------------------------------------------------------|
E |--------------------------------------------------------------------------Gtr1 & 2---|
B |--------------------------------------------------------------------------|----------|
F#|--------------------------------------------------------------------------|----------|
B-|-0-0-0-1212121212121212-0-0-0------------------0-0-0-1212121212121212-0-0-0066002b~r-|



Verse 2 3:11
Gtr1
C#|---------------------------------------|
G#|---------------------------------------|
E |---------------------------------------|
B |---------------------------------------| x4
F#|---------------------------------------|
B-|-0-0-0-1212121212121212-0-0-0066002b~r-|
Gtr2
C#|---------------------------------------|
G#|---------------------------------------|
E |---------------------------------------|
B |---------------------------------------| x4
F#|---------------------------------------|
B-|-0-0-0-8-8-8-8-8-8-8-8--0-0-0066002b~r-|



Breakdown 3:30 (The violin's make this part so excellent)
Gtr1 & 2 (slightly p. muted)  1st & 3rd end. 2nd ending (AH)
C#|--------------------|-------------|-----------------|
G#|--------------------|-------------|-----------------|
E |--------------------|-------------|-Neck PU---------|
B |--------------------|-------------|-7*br------------|
F#|-0~0~0~0~0~0~0~0~0~-|-4-3-2-3-2-1-|---or-12*br------|
B-|-0~0~0~1~1~1~0~0~0~-|-4-3-2-3-2-1-|------Bridge PU -|



          Play Chorus (x2) 3:49 - 4:28
                   Then
           Play Main riff Till ending...
Добавлено: 03.11.2013
Другие материалы по этой песне:

Страница создана 26.10.2013
http://primanota.ru/asking-alexandria/dont-pray-for-me-chords.htm
Привет, Гость.
Предлагаем пройти революционный курс по гитаре.
Подарок от PrimaNota.Ru, забирай!