PrimaNota.ru - самый крупный в мире бесплатный архив песенных текстов, аккордов, табулатур и нот


Asking Alexandria - A Single Moment Of Sincerity Part 1 - таба, видео

Регистрация Запомнить меня
Войти через:  Facebook Google Twitter Vk Yandex Mail.ru

Asking Alexandria - A Single Moment Of Sincerity Part 1 - таба, видео

Печатать
Просмотров: 291
-------------------------------------------------------------------------------
                             Asking Alexandria - A Single Moment of Sincerity
-------------------------------------------------------------------------------
Tabbed by: Jared P
Email: thatsjared87@gmail.com

Recently been busy traveling with work. I hope to get the second half up by the
end of August 2009.

Tuning: Drop D

d|---------------------------------|
B|---------------------------------|
G|----------------10--10-10--------|  x3
D|---0---0---0---------------------|
A|---0---0---0-----8---8---8-------|
D|---0---0---0---------------------|


d|--------------------------------------|
B|--------------------------------------|
G|-----------------9---9---9------------|
D|---0---0---0--------------------------|
A|---0---0---0-----7---7---7------------|
D|---0---0---0--------------------------|


d|--------------------------------------|
B|----------------10--10-10-------------|
G|----------------10--10-10-------------|  x3
D|---0---0---0--------------------------|
A|---0---0---0-----8---8---8------------|
D|---0---0---0--------------------------|

                                  x
d|--------------------------------------|
B|-----------------8---8---8------------|
G|-----------------9---9---9------------|
D|---0---0---0-----------------0--------|
A|---0---0---0-----7---7---7---0--------|
D|---0---0---0-----------------0--------|    "get on your knees..."

     x         x  x x x x         x  x         x x  x x
e|----------------------------------------------------------------------|
B|----------------------------------------------------------------------|
G|----------------------------------------------------------------------| x2
D|---0--------0---0-0-0-0--------0---0--------0-0---0-0-----------------|
A|---0--------0---0-0-0-0--------0---0--------0-0---0-0-----------------|
D|---0--------0---0-0-0-0--------0---0--------0-0---0-0-----------------|


e|----------------------------------------------------------------------|
B|----------------------------------------------------------------------|
G|----------------------------------------------------------------------| x2
D|---0--------0---0-0-0-0--------0-0------0------0-0-0------------------|
A|---0--------0---0-0-0-0--------0-0------0------0-0-0------------------|
D|---1--------1---1-1-1-1--------1-1------1------1-1-1------------------|
           (half mute this whole part)

     x         x  x x x x         x  x         x x  x x
e|----------------------------------------------------------------------|
B|----------------------------------------------------------------------|
G|----------------------------------------------------------------------| x2
D|---0--------0---0-0-0-0--------0---0--------0-0---0-0-----------------|
A|---0--------0---0-0-0-0--------0---0--------0-0---0-0-----------------|
D|---0--------0---0-0-0-0--------0---0--------0-0---0-0-----------------|


Techno part*

         x       x       x
e|--------------------------------------|
B|--------------------------------------|
G|--------------------------------------|
D|--------------------------------------|  x3
A|---5------7-------8-------7-----------|
D|-------0-------0-------0--------------|

         x       x       x
e|--------------------------------------|
B|--------------------------------------|
G|--------------------------------------|
D|--------------------------------------|  x3
A|---8------10------8-------7-----------|
D|-------0-------0-------0--------------|

         x       x       x
e|--------------------------------------|
B|--------------------------------------|
G|--------------------------------------|
D|--------------------------------------|  x3
A|---5------7-------8-------7-----------|
D|-------0-------0-------0--------------|

      x   x (half mute/let ring)
d|------------------------|
B|------------------------|
G|------------------------|
D|--------0---------------|
A|--------0---------------|
D|---0----0---------------|

                                                                     x x x x x x
d|---------------------------------------------------------------------------------------|
B|---------------------------------------------------------------------------------------|
G|---------------------------------------------------------------------------------------|
D|-------------------------------------------------0-0-0-0-0-0---------------------------|
A|---5p--0h--7p--0h--8p--0h--7p--0h--5p--0h--7p--0-0-0-0-0-0-0---------------------------|
D|-------------------------------------------------0-0-0-0-0-0---------------------------|


                                           x         x  +  +
d|---------------------------------------------------------------------------------------|
B|---------------------------------------------------------------------------------------|
G|---------------------------------------------------------------------------------------|
D|------------------------------------------------------7--------------------------------|
A|---5p--0h--7p--0h--8p--0h--7p--0h--7h-8-----7h-8---------7-----------------------------|
D|-----------------------------------------0----------0----------------------------------|

                                                                     x x x x x x
d|---------------------------------------------------------------------------------------|
B|---------------------------------------------------------------------------------------|
G|---------------------------------------------------------------------------------------|
D|-------------------------------------------------0-0-0-0-0-0---------------------------|
A|---5p--0h--7p--0h--8p--0h--7p--0h--5p--0h--7p--0-0-0-0-0-0-0---------------------------|
D|-------------------------------------------------0-0-0-0-0-0---------------------------|


                                           x         x  +  +
d|---------------------------------------------------------------------------------------|
B|---------------------------------------------------------------------------------------|
G|---------------------------------------------------------------------------------------|
D|------------------------------------------------------7--------------------------------|
A|---5p--0h--7p--0h--8p--0h--7p--0h--7h-8-----7h-8---------7-----------------------------|
D|-----------------------------------------0----------0----------------------------------|


| /  slide up
| \  slide down
| h  hammer-on
| p  pull-off
| ~  vibrato
| +  harmonic
| x  Mute note
===============================================================================
Добавлено: 28.05.2012
Другие материалы по этой песне:
  • Аккорды и текст

Страница создана 28.05.2012
http://primanota.ru/asking-alexandria/a-single-moment-of-sincerity-part-1-chords.htm
Привет, Гость.
Предлагаем пройти революционный курс по гитаре.
Подарок от PrimaNota.Ru, забирай!