PrimaNota.ru - самый крупный в мире бесплатный архив песенных текстов, аккордов, табулатур и нот


Asin - Himig Ng Pag Ibig - таба, видео

Регистрация Запомнить меня
Войти через:  Facebook Google Twitter Vk Yandex Mail.ru

Asin - Himig Ng Pag Ibig - таба, видео

Печатать
Просмотров: 80
HIMIG NG PAG-IBIG - Asin
Words and music by Lolita Carbon-Lopez, Pozas
>From the album Masdan Mo Ang Kapaligiran
Transcribed by Claudio 'Dingdong' Lorico (loricod@yahoo.com)

19 Jun 2002 

I think there are actually two guitars playing in the song with the rhythm
part done by a 12-string guitar, nevertheless I tried to transcribe it
for just one guitar.

Comments/suggestions/corrections are most welcome.

Pick Pattern: p-i-m-i-a-m-i-m 
  where
    p (pulgar) = thumb
    i (indice) = index finger
    m (medio)  = middle finger
    a (anular) = ring finger

[Intro][Verse][Refrain]

1st part:
  C                 G/B               Am                D/F#
 (m)
  p i m i a m i m   p i m i a m i m   ...               p i m i a m i i      
|---------0-------|---------0-------|---------0-------|---------0-------| 
|(1)--1-----1---1-|-----1-----1---1-|-----1-----1---1-|-----1-----1-----|
|---0---0-----0---|---0---0-----0---|---2---2-----2---|---2---2-----2-0-|
|-----------------|-----------------|-----------------|-----------------|
|-3---------------|-2---------------|-0---------------|-----------------|
|-----------------|-----------------|-----------------|-2---------------|

  F                 C/E               G                 G7
                                                        a   a   a   m 
  p i m i a m i m   ...               ...               p i p i p i p i
|---------0-------|---------0-------|---------1-------|-3---1---0-------|
|-----1-----1---1-|-----1-----1---1-|-----0-----0---0-|-------------3---|
|---2---2-----2---|---0---0-----0---|---0---0-----0---|---0---0---0---0-|
|-3---------------|-2---------------|-----------------|-----------------|
|-----------------|-----------------|-----------------|---------0---2---|
|-----------------|-----------------|-3---------------|-3---3-----------|


2nd part:
  C                 G/B               Am                D/F#
 (m)
  p i m i a m i m   p i m i a m i m   ...               p i m i a m i i      
|---------0-------|---------0-------|---------0-------|---------0-------| 
|(1)--1-----1---1-|-----1-----1---1-|-----1-----1---1-|-----1-----1-----|
|---0---0-----0---|---0---0-----0---|---2---2-----2---|---2---2-----2-0-|
|-----------------|-----------------|-----------------|-----------------|
|-3---------------|-2---------------|-0---------------|-----------------|
|-----------------|-----------------|-----------------|-2---------------|

  F                 C/E               G                 G7
                                                        a   m   m   m 
  p i m i a m i m   ...               p i m i a m i     p i p i p i p i
|---------0-------|---------0-------|---------1-------|-1---------------|
|-----1-----1---1-|-----1-----1---1-|-----0-----0-----|-----3---1---0---|
|---2---2-----2---|---0---0-----0---|---0---0-----0---|---0---0---0---0-|
|-3---------------|-2---------------|-----------------|-----------------|
|-----------------|-----------------|-----------------|---------0---2---|
|-----------------|-----------------|-3---------------|-3---3-----------|


[Outro]

(same as 2nd part of [Intro] but add this to the end)

  C   
  p   pause
|-0-||
|-1-||
|-0-||
|-2-||
|-3-||
|---||

Symbols: 
  ()  = optional note (you may or may not play it)
  ... = simile

Chords: (Where there are more than one fingering given, the first is the 
         suggested one, but you can choose whatever that works best for you)

 C            G/B          Am           D/F#         F            C/E 
 ======       ======       ======       ======       ======       ======
 ||||*|       ||||*|       ||||*|       ||||*|       ||||*|       ||||*|
 ------       ------       ------       ------       ------       ------
 ||*|||       |*||||       ||**||       *||*||       |||*||       ||*|||
 ------       ------       ------       ------       ------       ------
 |*||||       ||||||       ||||||       ||||||       ||*|||       ||||||
 ------       ------       ------       ------       ------       ------
 ||||||       ||||||       ||||||       ||||||       ||||||       ||||||
 ------       ------       ------       ------       ------       ------
 x30010       x20010       x02210       2x0310       xx3210       xx2010
                                        Tx0210

 G            G7                  
 ======       ======             
 ||||||       |||||*              
 ------       ------              
 ||||||       ||||||              
 ------       ------             
 *||||*       *|||||              
 ------       ------              
 ||||||       ||||||              
 ------       ------             
 3x0004       3x0004 

-------------------------------------------------------------------------------
Mabuhay ang Pilipinas!

     
Добавлено: 28.01.2014
Другие материалы по этой песне:
  • Аккорды и текст

Страница создана 05.12.2013
http://primanota.ru/asin/himig-ng-pag-ibig-2-chords.htm
Привет, Гость.
Предлагаем пройти революционный курс по гитаре.
Подарок от PrimaNota.Ru, забирай!