PrimaNota.ru - самый крупный в мире бесплатный архив песенных текстов, аккордов, табулатур и нот


Asian Kung-fu Generation - Yuigahama Kite - таба, видео

Регистрация Запомнить меня
Войти через:  Facebook Google Twitter Vk Yandex Mail.ru

Asian Kung-fu Generation - Yuigahama Kite - таба, видео

Печатать
Просмотров: 136
-------------------------------------------------------------------------------
               Yuigahama Kite – Asian Kung-Fu Generation
-------------------------------------------------------------------------------
Tabbed by:t0ulee619	
Email:sharigan_owns_u@hotmail.com

Tuning: Standard 

Intro 
Guitar I 
e|----------------------------------------------------------------------|
B|----------------------------------------------------------------------|
G|-----9---------------------------------9------------------------------|
D|---7---9-7--7------------------------7---9-7--7-----------------------|
A|----------------11-9-11—---11p9-7-------------------11-9-7------------|
E|----------------------------------------------------------------------|  x2 

Guitar II 
e|----------------------------------------------------------------------|
B|----------------------------------------------------------------------|
G|-----------8-8-8-8-9-9-9-9------------------8-8-8-8-9-9-9-9-9-9-9-9---|
D|---7-7-7-7-8-8-8-8-9-9-9-9-6-6-6-6--7-7-7-7-8-8-8-8-9-9-9-9-9-9-9-9---|
A|---7-7-7-7-6-6-6-6-7-7-7-7-6-6-6-6--7-7-7-7-6-6-6-6-7-7-7-7-7-7-7-7---|
E|---5-5-5-5-----------------4-4-4-4--5-5-5-5---------------------------|  x2

Verse I 
Guitar I
e|---------------------------------------------------------------------------|
B|---------------------------------------------------------------------------|
G|---------------------------------------------------------------------------|
D|--------------------------------------------------9/11---9-7-9-------------|
A|---------------------------------------------------------------------------|
E|---------------------------------------------------------------------------|

Guitar II 
e|---------------------------------------------------------------------------|
B|---------------------------------------------------------------------------|
G|---------------------------------------------------------------------------|
D|---------8-8-8-8-9-9-9-9-----------------8-8-8-8-9-9-9-9-9-9-9-9-----------|
A|-7-7-7-7-6-6-6-6-7-7-7-7-6-6-6-6-7-7-7-7-6-6-6-6-7-7-7-7-7-7-7-7-----------|
E|-5-5-5-5-----------------4-4-4-4-5-5-5-5-----------------------------------|
   x x x x x x x x x x x x x x x x x x x x x x x x x x x x x x x x
	
Guitar I 									
e|---------------------------------------------------------------------------|
B|---------------------------------------------------------------------------|
G|---------------------------------------------------------9-9-9-9-----------|
D|---------------------------------------------------------9-9-9-9-----------|
A|---------------------------------------------------------7-7-7-7-----------|
E|---------------------------------------------------------------------------|

Guitar II
e|---------------------------------------------------------------------------|
B|---------------------------------------------------------------------------|
G|---------------------------------------------------------9-9-9-9-----------|
D|---------8-8-8-8-9-9-9-9-----------------8-8-8-8-9-9-9-9-9-9-9-9-----------|
A|-7-7-7-7-6-6-6-6-7-7-7-7-6-6-6-6-7-7-7-7-6-6-6-6-7-7-7-7-7-7-7-7-----------|
E|-5-5-5-5-----------------4-4-4-4-5-5-5-5-----------------------------------|
   x x x x x x x x x x x x x x x x x x x x x x x x x x x x 


Chorus I 
Guitar I 
e|---------------------------------------------------------------------------|
B|---------------------------------------------------------------------------|
G|------------------------------------------9-----9--------------------------|
D|--9-9-7---7-7-6---7-7-6-4--6------7----9-----9-----------------------------|
A|---------------------------------------------------------------------------|
E|---------------------------------------------------------------------------|

Guitar II 
e|---------------------------------------------------------------------------|
B|---------------------------------------------------------------------------|
G|----------8-8-8-8-9-9-9-9-----------------8-8-8-8-9-9-9-9------------------|
D|--7-7-7-7-8-8-8-8-9-9-9-9-6-6-6-6-7-7-7-7-8-8-8-8-9-9-9-9-6-6-6-6----------|
A|--7-7-7-7-6-6-6-6-7-7-7-7-6-6-6-6-7-7-7-7-6-6-6-6-7-7-7-7-6-6-6-6----------|
E|--5-5-5-5-----------------4-4-4-4-5-5-5-5-----------------4-4-4-4----------|

Verse II 
Guitar I 
e|---------------------------------------------------------------------------|
B|---------------------------------------------------------------------------|
G|---------------------------------------------------------------------------|
D|-------------------------------------------------9/11--9-7--6-7--9~--------|
A|---------------------------------------------------------------------------|
E|---------------------------------------------------------------------------|

Guitar II 
e|---------------------------------------------------------------------------|
B|---------------------------------------------------------------------------|
G|---------------------------------------------------------------------------|
D|---------8-8-8-8-9-9-9-9-----------------8-8-8-8-9-9-9-9-9-9-9-9-----------|
A|-7-7-7-7-6-6-6-6-7-7-7-7-6-6-6-6-7-7-7-7-6-6-6-6-7-7-7-7-7-7-7-7-----------|
E|-5-5-5-5-----------------4-4-4-4-5-5-5-5-----------------------------------|
   x x x x x x x x x x x x x x x x x x x x x x x x x x x x x x x x

Guitar I 									
e|---------------------------------------------------------------------------|
B|---------------------------------------------------------------------------|
G|---------------------------------------------------------9-9-9-9-----------|
D|---------------------------------------------------------9-9-9-9-----------|
A|---------------------------------------------------------7-7-7-7-----------|
E|---------------------------------------------------------------------------|

Guitar II
e|---------------------------------------------------------------------------|
B|---------------------------------------------------------------------------|
G|---------------------------------------------------------9-9-9-9-----------|
D|---------8-8-8-8-9-9-9-9-----------------8-8-8-8-9-9-9-9-9-9-9-9-----------|
A|-7-7-7-7-6-6-6-6-7-7-7-7-6-6-6-6-7-7-7-7-6-6-6-6-7-7-7-7-7-7-7-7-----------|
E|-5-5-5-5-----------------4-4-4-4-5-5-5-5-----------------------------------|
   x x x x x x x x x x x x x x x x x x x x x x x x x x x x 


Chorus II 
Guitar I 
e|---------------------------------------------------------------------------|
B|---------------------------------------------------------------------------|
G|---------------------------------9-9--9------------------------------------|
D|--6/7---7-7-6--6-6-4---4-6-7--7/9-9-9--------------------------------------|
A|---------------------------------------------------------------------------|
E|---------------------------------------------------------------------------|

Guitar II 
e|---------------------------------------------------------------------------|
B|---------------------------------------------------------------------------|
G|--------------------------------------------------9-9-9-9-9-9-9-9----------|
D|--7-7-7-7-7-7-7-7-6-6-6-6-6-6-6-6-7-7-7-7-7-7-7-7-9-9-9-9-9-9-9-9----------|
A|--7-7-7-7-7-7-7-7-7-7-7-7-7-7-7-7-7-7-7-7-7-7-7-7-7-7-7-7-7-7-7-7----------|
E|--5-5-5-5-5-5-5-5-4-4-4-4-4-4-4-4-5-5-5-5-5-5-5-5--------------------------|

Guitar I 
e|---------------------------------------------------------------------------|
B|---------------------------------------------------------------------------|
G|------------------9-9-9-9--------------------------------------------------|
D|--7-7-7-7-9-9-9-9---------6-6-6-6-7-7-7-7-9-9-9-9--7/6---------------------|
A|---------------------------------------------------------------------------|
E|---------------------------------------------------------------------------|

Guitar II 
e|---------------------------------------------------------------------------|
B|---------------------------------------------------------------------------|
G|------------------9-9-9-9-------------------------9-9-9-9-9-9-9-9----------|
D|--7-7-7-7-9-9-9-9-9-9-9-9-6-6-6-6-7-7-7-7-9-9-9-9-9-9-9-9-9-9-9-9----------|
A|--7-7-7-7-9-9-9-9-7-7-7-7-7-7-7-7-7-7-7-7-9-9-9-9-7-7-7-7-7-7-7-7----------|
E|--5-5-5-5-7-7-7-7---------4-4-4-4-5-5-5-5-7-7-7-7--------------------------|


Solo
Guitar I 
e|---------------------------------------------------------------------------|
B|---------------------------------------------------------------------------|
G|-----------------------------9--9--9--9-11-9-8-9--8------------------------|
D|6/7—7-7\6-6-6------6-6/7-7/9---9--9----------------9--7-6--6-7-9-7-6--7-7-6|
A|-------------9--9----------------------------------------------------------|
E|---------------------------------------------------------------------------|

Guitar II 
e|-------------------------------------------------------------------------|
B|-------------------------------------------------------------------------|
G|------------------9-9-9-9-------------------------9-9-9-9-9-9-9-9--------|
D|--7-7-7-7-9-9-9-9-9-9-9-9-6-6-6-6-7-7-7-7-9-9-9-9-9-9-9-9-9-9-9-9--------|
A|--7-7-7-7-9-9-9-9-7-7-7-7-7-7-7-7-7-7-7-7-9-9-9-9-7-7-7-7-7-7-7-7--------|
E|--5-5-5-5-7-7-7-7---------4-4-4-4-5-5-5-5-7-7-7-7------------------------| x2 
                                                                             

Solo II 
Guitar I  (Come in after guitar II goes through 2 times) 
e|--------------------12------------------------------------------------------|
B|---------------12-14---14-14(b)---------------------------------------------|
G|-11~--14-11-14--------------------------10-11-10-11-10--------10-11-10-11-10|
D|--------------------------------11-10-11--------------11-10-11--------------|
A|----------------------------------------------------------------------------|
E|----------------------------------------------------------------------------|
        x  x  x

e|----14----14--14(b)--------------------------------------------------------|
B|--14---14---------------------------------------------12-------------------|
G|--------------------14-11-14-11-14-13--14-11-14-11-14-----14-11-14-11-14-13|
D|---------------------------------------------------------------------------|
A|---------------------------------------------------------------------------|
E|---------------------------------------------------------------------------|

e|------------------|
B|-----------12-----|
G|--14-11-14-----9\-|
D|------------------|
A|------------------|
E|------------------|

Guitar II 
e|-----------------------|
B|-----------------------|
G|---------------2-2-2---|
D|-4-2-4-2-4-2-4-2-2-2---|
A|-4-2-4-2-4-2-4-0-0-0---|
E|-2-0-2-0-2-0-2---------| x6 

e|---------------|                       e|---------------|
B|---------------|                       B|---------------|
G|-----------2---|                       G|---------------|
D|-4-2-4-2-4-2---|                       D|-4-2-4-2-4-2-2-|
A|-4-2-4-2-4-0---|                       A|-4-2-4-2-4-2-2-|
E|-2-0-2-0-2-----| x3         Last time: E|-2-0-2-0-2-0-0-|


Bridge
Guitar I 
e|---------------------------------------------------------------------------|
B|---------------------------------------------------------------------------|
G|---------------------------------------------------------------------------|
D|---------------------------------9-9-9-9-9-9-9-9---------------------------|
A|---------------------------------7-7-7-7-7-7-7-7-7-7-7-7-7-7-7-7-----------|
E|-------------------------------------------------5-5-5-5-5-5-5-5-----------|
                                   x x x x x x x x x x x x x x x x
Guitar II 
e|---------------------------------------------------------------------------|
B|---------------------------------------------------------------------------|
G|---------------------------------------------------------------------------|
D|---------------------------------------------------------------------------|
A|-2-2-2-2-2-2-2-2-2-2-2-2-2-2-2-2-2-2-2-2-2-2-2-2-4-4-4-4-4-4-4-4-----------|
E|-0-0-0-0-0-0-0-0-0-0-0-0-0-0-0-0-0-0-0-0-0-0-0-0-2-2-2-2-2-2-2-2-----------|
   x x x x x x x x x x x x x x x x x x x x x x x x x x x x x x x x 

Guitar I 
e|---------------------------------------------------------------------------|
B|---------------------------------------------------------------------------|
G|---------------------------------------------------------------------------|
D|-----------------9-9-9-9-9-9-9-9-9-9-9-9-9-9-9-9---------------------------|
A|-9-9-9-9-9-9-9-9-7-7-7-7-7-7-7-7-7-7-7-7-7-7-7-7-7-7-7-7-7-7-7-7-----------|
E|-7-7-7-7-7-7-7-7---------------------------------5-5-5-5-5-5-5-5-----------|
   x x x x x x x x x x x x x x x x x x x x x x x x x x x x x x x x 

Guitar II 
e|---------------------------------------------------------------------------|
B|---------------------------------------------------------------------------|
G|---------------------------------------------------------------------------|
D|---------------------------------------------------------------------------|
A|-7-7-7-7-7-7-7-7-2-2-2-2-2-2-2-2-2-2-2-2-2-2-2-2-4-4-4-4-4-4-4-4-----------|
E|-5-5-5-5-5-5-5-5-0-0-0-0-0-0-0-0-0-0-0-0-0-0-0-0-2-2-2-2-2-2-2-2-----------|
   x x x x x x x x x x x x x x x x x x x x x x x x x x x x x x x x

Guitar I 
e|---------------------------------------------------------------------------|
B|---------------------------------------------------------------------------|
G|-------------------------4-6-6-6-2-----------------------------------------|
D|-------------------------x-x-x-x-2-----------------------------------------|
A|-9-9-9-9-9-9-9-9-9-9-9-9-2-4-4-4-0-----------------------------------------|
E|-7-7-7-7-7-7-7-7-7-7-7-7---------------------------------------------------|	
   x x x x x x x x x x x x

Guitar II 
e|---------------------------------------------------------------------------|
B|---------------------------------------------------------------------------|
G|---------------------------------------------------------------------------|
D|-------------------------9-9-9-9-------------------------------------------|
A|-7-7-7-7-7-7-7-7-9-9-9-9-9-9-9-9-------------------------------------------|
E|-5-5-5-5-5-5-5-5-7-7-7-7-7-7-7-7-------------------------------------------|
   x x x x x x x x x x x x

Chorus III
Guitar I 
e|-----------------------------|          |------------------|
B|-----------------------------|          |------------------|
G|-13/14--14-14/13--13-13/11-11|          |-13/14--14/16-21--|
D|--x--x---x--x--x---x—x---x--x|          |--x--x---x--x--x--|
A|-11/12--12-12/11--11-11/-9--9|          |-11/12--12/14-19--|
E|-----------------------------| x3       |------------------| :Last time

Guitar I 
e|---------------------------------------------------------------------------------|
B|---------------------------------------------------------------------------------|
G|-14-14-14-14-16-16-16-16-14-14-14-14-13-13-13-13-14-14-14-14-16-16-16-16-14/13-14|
D|--x--x--x--x--x--x--x--x--x--x--x--x--x--x--x--x--x--x--x--x--x--x--x--x--x--x--x|
A|-12-12-12-12-14-14-14-14-12-12-12-12-11-11-11-11-12-12-12-12-14-14-14-14-12/11-12|
E|---------------------------------------------------------------------------------|

Guitar I 
e|---------------------------------------------------------------------------------|
B|---------------------------------------------------------------------------------|
G|-14-14-14-14-16-16-16-16-14-14-14-14-13-13-13-13-14-14-14-14-16-16-16-16-18\16---|
D|--x--x--x--x--x--x--x--x--x--x--x--x--x--x--x--x--x--x--x--x--x--x--x--x--x--x---|
A|-12-12-12-12-14-14-14-14-12-12-12-12-11-11-11-11-12-12-12-12-14-14-14-14-16\14---|
E|---------------------------------------------------------------------------------|
Guitar I 
e|---------------------------------------------------------------------------|
B|---------------------------------------------------------------------------|
G|-----------------------------9--9--9--9-11-9-8-9--8------------------------|
D|6/7—7-7\6-6-6------6-6/7-7/9---9--9----------------9--7-6--6-7-9-7-6--7-7-6|
A|-------------9--9----------------------------------------------------------|
E|---------------------------------------------------------------------------|

Guitar II 
e|-----------------------------------|    
B|-----------------------------------|     
G|------------------9-9-9-9-9-9-9-9--|     
D|--7-7-7-7-7-7-7-7-9-9-9-9-9-9-9-9--|        
A|--7-7-7-7-7-7-7-7-7-7-7-7-7-7-7-7--|    
E|--5-5-5-5-5-5-5-5------------------| x4 
Guitar II 
e|-----------------------------------------------------------------|
B|-----------------------------------------------------------------|
G|-----------------9-9-9-9-------------------------9-9-9-9-9-9-9-9-|
D|-7-7-7-7-9-9-9-9-9-9-9-9-6-6-6-6-7-7-7-7-9-9-9-9-9-9-9-9-9-9-9-9-|
A|-7-7-7-7-9-9-9-9-7-7-7-7-7-7-7-7-7-7-7-7-9-9-9-9-7-7-7-7-7-7-7-7-|
E|-5-5-5-5-7-7-7-7---------4-4-4-4-5-5-5-5-7-7-7-7-----------------|  x4 



| /  slide up
| \  slide down
| h  hammer-on
| p  pull-off
| ~  vibrato
| +  harmonic
| x  mute note
===============================================================================

Добавлено: 06.06.2012
Другие материалы по этой песне:
  • Аккорды и текст

Страница создана 06.06.2012
http://primanota.ru/asian-kung-fu-generation/yuigahama-kite-chords.htm
Привет, Гость.
Предлагаем пройти революционный курс по гитаре.
Подарок от PrimaNota.Ru, забирай!